Табулатура Black Sabbath | Air Dance гитара табулатуры уроки тексты песен Black Sabbath текст lyrics песня аккорды песни ноты нота электрогитара струна  
   А Б В Г Д Е Ж З И К Л М Н О П Р С Т У Ф Х Ч Ш Ы Э Ю Я       Разные песни
1-9 A B C D E F G H I J K L M N O P Q R S T U V W Y Z      Все исполнители in english

    



группа Black Sabbath, Табулатура песни Air Dance

Продолжаем грести бабос на ботах в Telegram.
Только в этот раз есть вариант автоматизировать это дело, привлекая рефералов. Вы можете заработать если »

Группа: Black Sabbath - другие аккорды (243),   о группе (21 статей),   диски (20),   фотографии (152)
Табулатура песни: Air Dance
Просмотров: 1179
Прислал: Sabbath (sabbath54@mail.ru)




    
from- Michael James 
Air Dance
Black Sabbath - Never Say Die (1978)

|----------------------------------------------------------|
|-10/13-13----------13-13--10-10---10/13-13--------13--10--|
|-----------10--12---------------------------10-12---------|
|----------------------------------------------------------|
|----------------------------------------------------------|
|----------------------------------------------------------|
|                                                          |
|----------------------------------------------------------|
|----------------------------------------------------------|
|------------------5--5--------------------------5---------|
|--7/10-10--3---5--5--5--7--7----7/10-10--3--5---5--7------|
|--7/10-10--3---5--3--3--7--7----7/10-10--3--5---3--7------|
|--5/-8--8--1---3--------5--5----5/-8--8--1--3------5------|
|-------------0-----------------0-----------
|-----3---(6)---6-------3---(6)---6---------
|---2---2/-5------5---2---2/-5------5-------
|-0-----------------0-----------------------
|-------------------------------------------
|-------------------------------------------
|----------------------------------------------------
|----------------------12------------------------12--
|-1312-10--1312-10---12---1312-10--1312-10---12--
|-1312-10--1312-10--(12)--1312-10--1312-10--(12)-
|----------------------------------------------------
|----------------------------------------------------
1st time:
|-10----------10------------10-----------------------------
|---13-10-13^---13-10----10----13^-10----------------------
|---------------------12--------------12^--10-12-----------
|----------------------------------------------------------
|----------------------------------------------------------
|----------------------------------------------------------
|------------------------------------
|------------------------------------
|-109--------9-10-12-10-12-12/14----
|----------12------------------------
|------------------------------------
|------------------------------------
2nd time:
|-10--------10---------------------------------------------
|----13-13-------------------------------------------------
|--------------12-12--10-12^-12----12-10---10--------------
|----------------------------------------12---12-10-9------
|----------------------------------------------------------
|----------------------------------------------------------
"away......away..."
|-15--------------------------------------------
|----------------------------15--16-------------

Продолжаем грести бабос на ботах в Telegram.
Только в этот раз есть вариант автоматизировать это дело, привлекая рефералов. Вы можете заработать если »

|-12--14--16-------------------------14-/-16---- |----------------------------12--13------------- |-----12--14-------------------------12-/-14---- |----------------------------------------------- |------------------------------------------------- |------------------------------------------------- |-14-12-(11)-12--11h12p11---11-12-11-12-14-------- |------------------------------------------12-14-- |------------------------------------------------- |------------------------------------------------- |--------------------------------------------- |--------------------------------------------- |----11-12p11---------11-12p11-12-14---------- |-------------------------------------12--14-- |-14---------------14------------------------- |--------------------------------------------- |--------------------------------------------------------------------- |--------------------------------------------------------------------- |-14/16-16-16----------16-16-16----------14-14-14-------11-12-11------ |-------------14-14-14----------14-14-14----------12-12----------14--- |--------------------------------------------------------------------- |--------------------------------------------------------------------- |-------------------------------------------------------------------- |-------------------------------------------------------------------- |-14/16-16-16----------16-16-16----------14-14-14-------11-12-11----- |-------------14-14-14----------14-14-14----------12-12----------14-- |-------------------------------------------------------------------- |-------------------------------------------------------------------- |----------------------------------------------------------------- |----------------------------------------------------------------- |-------------------------------------12-10-9----9-10-12-12/14-12- |-12-10-9-----9-10-12--10-9-----10-12---------12------------------ |---------12----------------12------------------------------------ |----------------------------------------------------------------- |-------------------- |-------12----------- |-12h13----12h13----- |----------------14-- |-------------------- |-------------------- |---------------------------------------------------------- |---------------------------------------------------------- |-------------5--7-----7^7--5--------------5--7--5h7p5----- |--7--7--7----5--7-----7^7--5---7--7--7----5--7--5h7p5----- |--7--7--7----------------------7--7--7-------------------- |---------------------------------------------------------- Keyboard: arr. for guitar: |------------------------------------------------------------- |---------------6-----5-----6-----------------6-----5-----6--- |---7-----5-------5-----5-----5---7-----5-------5-----5-----5- |-----7-----7-----------------------7-----7------------------- |-5-----5-----5-----5-----5-----5-----5-----5-----5-----5----- |-------------------------------------------------------------

www.rdrop.com/~mjames/sabbath/
найти лекарство
список лекарств






О сайтеАккордыХит-парадПоискУроки ФорумыИщу песню
ПрограммыСвежачок-сПодпискаСтатьи
Яндекс.Метрика