Табулатура Black Sabbath | A Hard Road  (3) гитара табулатуры уроки тексты песен Black Sabbath текст lyrics песня аккорды песни ноты нота электрогитара струна  
   А Б В Г Д Е Ж З И К Л М Н О П Р С Т У Ф Х Ч Ш Ы Э Ю Я       Разные песни
1-9 A B C D E F G H I J K L M N O P Q R S T U V W Y Z      Все исполнители in english

    



группа Black Sabbath, Табулатура песни A Hard Road (3)

Продолжаем грести бабос на ботах в Telegram.
Только в этот раз есть вариант автоматизировать это дело, привлекая рефералов. Вы можете заработать если »

Группа: Black Sabbath - другие аккорды (243),   о группе (21 статей),   диски (20),   фотографии (152)
Табулатура песни: A Hard Road (3)
Просмотров: 1055
Прислал: Sabbath (sabbath54@mail.ru)




    
from- Michael James 
A Hard Road
Black Sabbath - Never Say Die (1978)

|------------------------|------------------------|
|------------------------|------------------------|
|------------------------|------------------------|
|------------------------|------------------------|
|-2--2--2--2--2--2--2--2-|-2--2--2--2--2--2--2--2-|
|------------------------|------------------------|

|----------------------|----------------------------|
|--------------2--4-4--|--------2--4-4--------------|
|-------4p2----2--4-4--|-4p2----2--4-4--4p2---------|
|-----------4----------|-----4--------------4-------|
|-2--2-----------------|----------------------2--2--|
|----------------------|----------------------------|
chorus:"oh its hard road..."
|-----------------------------------|
|-----------------------------------|
|-4--4--4-4--4-4--4-4--2--2--2-2-9--|
|-4--4--4-4--4-4--4-4--2--2--2-2-9--|
|-2--2--2-2--2-2--2-2--0--0--0-0-7--|
|--------------------------------0--|

|------------------------------------------------|
|---------------------------------2---4-4---4-4--|
|----------------------------4----2---4-4---4-4--|
|-4-4-/6-4---4--4-4-/6-4-4/6---4--2---4-4---4-4--|
|------------------------------2-----------------|
|------------------------------------------------|

|------------------------------------------------|
|---------------------------------2---4-4---4-4--|
|---------------------------------2---4-4---4-4--|
|-4-4-/6-4------4-4-/6-4--2-4--4--2---4-4---4-4--|
|------------------------------2-----------------|
|------------------------------------------------|
solo:
|------------------------------------------------|
|-2-3-2-----------5-4-2---------------2-3-2------|
|-------4~~~~----------2---2-2-2~~~---------4~~--|
|------------------------4-----------------------|
|------------------------------------------------|
|------------------------------------------------|

|--7---7-----7---7----------------10--10----10--10--|

Продолжаем грести бабос на ботах в Telegram.
Только в этот раз есть вариант автоматизировать это дело, привлекая рефералов. Вы можете заработать если »

|-10^-10^---10^-10^---5-3-2-------13^-13^---13^-13^-| |--------------------------2---2--------------------| |----------------------------4----------------------| |---------------------------------------------------| |---------------------------------------------------| |--7---7---7---7---------------------------------------| |-10^-10^-10^-10^--------------------------------------| |---------------------------------4-4---4-4---4-6^-6-4-| |-----------------------------/4h6---4h6---4h6---------| |------------------------------------------------------| |--------------------7-5--5h7--------------------------| b r r |-------------------------------------------| |----5-6-7----------------------------------| |-6^-------4--6-4-6864-6---4-6p4-7^^^6-4-4--| |------------------------6------------------| |-------------------------------------------| |-------------------------------------------| |-----------7~~\---------7~~\---------------------| |-------7-9-----------7-9---------------------------| |-4-6/8------------/8-----------7^6^-4-4-6-8^6^-4-4-| |---------------------------------------------------| |---------------------------------------------------| |---------------------------------------------------| |-------------------------------------------------| |-----7-----------7-----------7-----------7-------| |-6/8---86-4-6/8---86-4-6/8---86-4-6/8---86-4-| |-------------------------------------------------| |-------------------------------------------------| |-------------------------------------------------| |------------------------------------------------------| |-3/5-5^5^5^5^5^5^----5-5------5------3----------------| |------------------6^-----6^-4---6^-4--4-2-------------| |-----------------------------------------4-3-2-2------| |----------------------------------------------5-5-4-2-| |------------------------------------------------------|

www.rdrop.com/~mjames/sabbath/
поиск лекарств
список лекарств






О сайтеАккордыХит-парадПоискУроки ФорумыИщу песню
ПрограммыСвежачок-сПодпискаСтатьи
Яндекс.Метрика