Табулатура Metallica | Frantic гитара табулатуры уроки тексты песен Metallica текст lyrics песня аккорды песни ноты нота электрогитара струна  
   А Б В Г Д Е Ж З И К Л М Н О П Р С Т У Ф Х Ч Ш Ы Э Ю Я       Разные песни
1-9 A B C D E F G H I J K L M N O P Q R S T U V W Y Z      Все исполнители in english

    



группа Metallica, Табулатура песни Frantic

Группа: Metallica - другие аккорды (225),   о группе (32 статей),   диски (11),   фотографии (49)
Табулатура песни: Frantic
Просмотров: 4119
Прислал: xAL (xal@akkords.ru)




    
tabs by Dave Joksimovic
as performed on mtvICON

(both guitars)
D||----------------------------|----------------------------|
A||----------------------------|----------------------------|
F||----------------------------|----------------------------|
C||----------------------------|----------------------------|
G||---------------------0------|---------------------0------|
C||--1-1-1-1-1-1-1-1-1--0------|--1-1-1-1-1-1-1-1-1--0------|

----------------------------|----------------------------|
----------------------------|----------------------------|
----------------------------|----------------------------|
----------------------------|----------------------------|
---------------------0------|---------------------0------|
--1-1-1-1-1-1-1-1-1--0------|--1-1-1-1-1-1-1-1-1--0------|

----------------------------|----------------------------|
----------------------------|----------------------------|
----------------------------|----------------------------|
----------------------------|----------------------------|
---------------------0------|---------------------0------|
--1-1-1-1-1-1-1-1-1--0------|--1-1-1-1-1-1-1-1-1--0------|

----------------------------|----------------------------|
----------------------------|----------------------------|
----------------------------|----------------------------|
----------------------------|----------------------------|
---------------------0------|---------------------0------|
--1-1-1-1-1-1-1-1-1--0------|--1-1-1-1-1-1-1-1-1--0------|

 gtr1
|---------------------------------|---------------------------------|
|---------------------------------|---------------------------------|
|---------------------------------|---------------------------------|
|---------------------------------|---------------------------------|
|---------------------0-----------|---------------------0-----------|
|--1-1-1-1-1-1-1-1-1--0-----------|--1-1-1-1-1-1-1-1-1--0-----------|
|
|gtr2
|---------------------------------|---------------------------------|
|---------------------------------|---------------------------------|
|---------------------------------|---------------------------------|
|---------------------------------|---------------------------------|
|---------------------------------|---------------------------------|
|--1-1-1-1-1-1-1-1-1--0-0-0-0-0-0-|--1-1-1-1-1-1-1-1-1--0-0-0-0-0-0-|

|---------------------------------|---------------------------------|
|---------------------------------|---------------------------------|
|---------------------------------|---------------------------------|
|---------------------------------|---------------------------------|
|---------------------0-----------|---------------------0--------0--|
|--1-1-1-1-1-1-1-1-1--0-----------|--1-1-1-1-1-1-1-1-1--0--------0--|
|                                                          
|---------------------------------|---------------------------------|
|---------------------------------|---------------------------------|
|---------------------------------|---------------------------------|
|---------------------------------|---------------------------------|
|---------------------------------|---------------------------------|
|--1-1-1-1-1-1-1-1-1--0-0-0-0-0-0-|--1-1-1-1-1-1-1-1-1--0-0-0-0-0-0-|

both guitars
------------------------------|------------------------------|
------------------------------|------------------------------|
------------------------------|------------------------------|
------------------------------|------------------------------|
--6--3--0-------5--0----------|--6--3--0-------5--0----------|
--6--3--0-0-0-0-5--0--0-0-0-0-|--6--3--0-0-0-0-5--0--0-0-0-0-|

------------------------------|------------------------------|
------------------------------|------------------------------|
------------------------------|------------------------------|
------------------------------|------------------------------|
--6--3--0-------5--0----------|--6--3--0-------5--0----------|
--6--3--0-0-0-0-5--0--0-0-0-0-|--6--3--0-0-0-0-5--0--0-0-0-0-|

|-------------------------------|------------------------------|
|-------------------------------|------------------------------|
|*------------------------------|------------------------------|
|*------------------------------|------------------------------|
|---6--3--0-------5--0----------|--6--3--0-------5--0----------|
|---6--3--0-0-0-0-5--0--0-0-0-0-|--6--3--0-0-0-0-5--0--0-0-0-0-|
                                                              2x
------------------------------|-------------------------------||
------------------------------|-------------------------------||
------------------------------|------------------------------*||
------------------------------|------------------------------*||
--6--3--0-------5--0----------|--6--3--0-------5--0-----------||
--6--3--0-0-0-0-5--0--0-0-0-0-|--6--3--0-0-0-0-5--0--0-0-0-0--||

gtr1 only
----------------------------|----------------------------|
----------------------------|----------------------------|
----------------------------|----------------------------|
----------------------------|----------------------------|
----------------------------|----------------------------|
--18--15--0--17----17----0--|--18--15--0--17----17----0--|

----------------------------|----------------------------|
----------------------------|----------------------------|
----------------------------|----------------------------|
----------------------------|----------------------------|
----------------------------|----------------------------|
--18--15--0--17----17----0--|--18--15--0--0--0--0--0--0--|
 gtr1
|-----------------------------|----------------------------|
|-----------------------------|----------------------------|
|*----------------------------|----------------------------|
|*----------------------------|----------------------------|
|-----------------------------|----------------------------|
|---18--15--0--17----17----0--|--18--15--0--17----17----0--|
|
|gtr2
|-----------------------------|----------------------------|
|-----------------------------|----------------------------|
|*----------------------------|----------------------------|
|*----------------------------|----------------------------|
|---6---3---0--5-----5-----0--|--6---3---0--5-----5-----0--|
|---6---3---0--5-----5-----0--|--6---3---0--5-----5-----0--|

|----------------------------|------------------------------||
|----------------------------|------------------------------||
|----------------------------|-----------------------------*||
|----------------------------|-----------------------------*||
|----------------------------|------------------------------||
|--18--15--0--17----17----0--|--18--15--0--0--0--0--0-0-0---||
|
|----------------------------|------------------------------||
|----------------------------|------------------------------||
|----------------------------|-----------------------------*||
|----------------------------|-----------------------------*||
|--6---3---0--5-----5-----0--|--6---3---0--0--0--0--0-0-0---||
|--6---3---0--5-----5-----0--|--6---3---0--0--0--0--0-0-0---||
|-----------------------------|----------------------------|
|-----------------------------|----------------------------|
|*----------------------------|----------------------------|
|*----------------------------|----------------------------|
|-----------------------------|----------------------------|
|---18--15--0--17----17----0--|--18--15--0--17----17----0--|
|
|-----------------------------|----------------------------|
|-----------------------------|----------------------------|
|*----------------------------|----------------------------|
|*----------------------------|----------------------------|
|---6---3---0--5-----5-----0--|--6---3---0--5-----5-----0--|
|---6---3---0--5-----5-----0--|--6---3---0--5-----5-----0--|

|----------------------------|------------------------------||
|----------------------------|------------------------------||
|----------------------------|-----------------------------*||
|----------------------------|-----------------------------*||
|----------------------------|------------------------------||
Узнай ВСЕ о своем друге в ВК или FB
|--18--15--0--17----17----0--|--18--15--0--0--0--0--0-0-0---|| | |----------------------------|------------------------------|| |----------------------------|------------------------------|| |----------------------------|-----------------------------*|| |----------------------------|-----------------------------*|| |--6---3---0--5-----5-----0--|--6---3---0--0--0--0--0-0-0---|| |--6---3---0--5-----5-----0--|--6---3---0--0--0--0--0-0-0---|| both guitars ---------------------------|--------------------------| ---------------------------|--------------------------| *--------------------------|--------------------------| *--------------------------|--------------------------| ---6/-3--------------------|--6/-3--------------------| ---6/-3--0--0--0--0--0--0--|--6/-3--0--0--0--0--0--0--| --------------------------|---------------------------|| --------------------------|---------------------------|| --------------------------|--------------------------*|| --------------------------|--------------------------*|| --6/-3--------------------|--6/-3---------------------|| --6/-3--0--0--0--0--0--0--|--6/-3--0--0--0--0--0--0---|| --------------------------|--------------------------| --------------------------|--------------------------| --------------------------|--------------------------| --------------------------|--------------------------| --3--3--3--3--2--2--2--2--|--3--3--3--3--2--2--2--2--| --3--3--3--3--2--2--2--2--|--3--3--3--3--2--2--2--2--| --------------------------|--------------------------| --------------------------|--------------------------| --------------------------|--------------------------| --------------------------|--------------------------| --3--3--3--3--2--2--2--2--|--3--3--3--3--2--2--2--2--| --3--3--3--3--2--2--2--2--|--3--3--3--3--2--2--2--2--| |---------------------------|--------------------------| |---------------------------|--------------------------| |*--------------------------|--------------------------| |*--------------------------|--------------------------| |---6/-3--------------------|--6/-3--------------------| |---6/-3--0--0--0--0--0--0--|--6/-3--0--0--0--0--0--0--| --------------------------|---------------------------|| --------------------------|---------------------------|| --------------------------|--------------------------*|| --------------------------|--------------------------*|| --6/-3--------------------|--6/-3---------------------|| --6/-3--0--0--0--0--0--0--|--6/-3--0--0--0--0--0--0---|| gtr1 only ----------------------------|----------------------------| ----------------------------|----------------------------| ----------------------------|----------------------------| ----------------------------|----------------------------| ----------------------------|----------------------------| --18--15--0--17----17----0--|--18--15--0--17----17----0--| gtr1 |----------------------------|----------------------------| |----------------------------|----------------------------| |----------------------------|----------------------------| |----------------------------|----------------------------| |----------------------------|----------------------------| |--18--15--0--17----17----0--|--18--15--0--17----17----0--| | |gtr2 |----------------------------|----------------------------| |----------------------------|----------------------------| |----------------------------|----------------------------| |----------------------------|----------------------------| |--6---3---0--5-----5-----0--|--6---3---0--5-----5-----0--| |--6---3---0--5-----5-----0--|--6---3---0--5-----5-----0--| gtr1 only ----------------------------|----------------------------| ----------------------------|----------------------------| ----------------------------|----------------------------| ----------------------------|----------------------------| ----------------------------|----------------------------| --18--15--0--17----17----0--|--18--15--0--17----17----0--| both guitars ---------------------------|---------------------------| ---------------------------|---------------------------| ---------------------------|---------------------------| ---------------------------|---------------------------| ---------------------------|---------------------------| --0-0-0-0-0-0-0-0-0--------|--0-0-0-0-0-0-0-0-0--------| ---------------------------|---------------------------| ---------------------------|---------------------------| ---------------------------|---------------------------| ---------------------------|---------------------------| ---------------------------|---------------------------| --0-0-0-0-0-0-0-0-0--------|--0-0-0-0-0-0-0-0-0--------| gtr1 2x |------------------------|---------------------------|| |------------------------|---------------------------|| |*-13------10------12----|--------------------------*|| |*-----------------------|--------------------------*|| |------------------------|---------------------------|| |------------------------|---------------------------|| | |gtr2 2x |------------------------|---------------------------|| |------------------------|---------------------------|| |*-----------------------|----0--0------------------*|| |*---------6-------------|----------6-----6----------|| |--10--------------10----|-------------8-----10--10--|| |------------------------|---------------------------|| gtr1 only ---------------------|-------------------| ---------------------|-------------------| --7------5------4----|-------------------| ---------------------|----5--------------| ---------------------|-------------------| ---------------------|-------------------| ---------------------|-------------------| ---------------------|-------------------| --7------5------4----|-------------------| ---------------------|----5--------------| ---------------------|-------------------| ---------------------|-------------------| gtr1 2x |------------------------|---------------------------|| |------------------------|---------------------------|| |*-13------10------12----|--------------------------*|| |*-----------------------|--------------------------*|| |------------------------|---------------------------|| |------------------------|---------------------------|| | |gtr2 2x |------------------------|---------------------------|| |------------------------|---------------------------|| |*-----------------------|----0--0------------------*|| |*---------6-------------|----------6-----6----------|| |--10--------------10----|-------------8-----10--10--|| |------------------------|---------------------------|| gtr1 only ---------------------|-------------------|---------------------|-------------------|| ---------------------|-------------------|---------------------|-------------------|| --7------5------4----|-------------------|--7------5------4----|-------------------|| ---------------------|----5--------------|---------------------|----5--------------|| ---------------------|-------------------|---------------------|-------------------|| ---------------------|-------------------|---------------------|-------------------||

поиск лекарств
список лекарств

Топвилла

topvilla.io








О сайтеАккордыХит-парадПоискУроки ФорумыИщу песню
ПрограммыСвежачок-сПодпискаСтатьи
Яндекс.Метрика