Табулатура Black Sabbath | Johnny Blade гитара табулатуры уроки тексты песен Black Sabbath текст lyrics песня аккорды песни ноты нота электрогитара струна  
   А Б В Г Д Е Ж З И К Л М Н О П Р С Т У Ф Х Ч Ш Ы Э Ю Я       Разные песни
1-9 A B C D E F G H I J K L M N O P Q R S T U V W Y Z      Все исполнители in english

    



группа Black Sabbath, Табулатура песни Johnny Blade

Работа в Европе для граждан РФ, Украины, СНГ

  • минимальная зарплата $500.
  • виза и контракт на полгода, возможно продление
  • проживание оплачивает работодатель
  • нужен только загранпаспорт
  • оформление 190 €
  • данное предложение - отличная возможность эмигрировать в Европу и закрепиться здесь навсегда.

  • Мы свяжемся с Вами по WhatsApp или Viber и ответим на любые вопросы.
    на нашем сайте можно почитать подробнее »

    Группа: Black Sabbath - другие аккорды (243),   о группе (21 статей),   диски (20),   фотографии (152)
    Табулатура песни: Johnny Blade
    Просмотров: 989
    Прислал: Sabbath (sabbath54@mail.ru)




        
    from- Michael James 
    Johnny Blade
    Black Sabbath - Never Say Die (1978)
    
    |----------------------------------------------------------
    |----------------------------------------------------------
    |----------------------------------------------------------
    |------3--------------3--------------3---------------------
    |----------2p1------------2p1------------2p1---------------
    |-1--1---1-----3-1--1---1-----3-1--1---1-----3-1-----------
    
    |----------------------------------------------------------
    |----------------------------------------------------------
    |-3--1--1-/3----------------3--1--1-/3---------------------
    |-3--1--1-/3----------------3--1--1-/3---------------------
    |--------------------2p1-----------------------------------
    |-------------1--1-1-----3---------------------------------
    
    |----------------------------------------------------------
    |----------------------------------------------------------
    |----------------------------------------------------------
    |------5--------------5--------------5---------------------
    |----------4p3------------4p3------------4p3---------------
    |-3--3---3-----5-3--3---3-----5-3--3---3-----5-3-----------
    
    |----------------------------------------------------------
    |----------------------------------------------------------
    |-5--3--3-/5----------------5--3--3-/5---------------------
    |-5--3--3-/5----------------5--3--3-/5---------------------
    |--------------------4p3-----------------------------------
    |-------------3--3-3-----5---------------------------------
    johnny blade..
    |----------------------------------------------------------
    |----------------------------------------------------------
    |----------------------------------------------------------
    |-7---------7---10--12------7--------7---10--12------------
    |-7---------7----8--10------7--------7----8--10------------
    |-5---------5---------------5--------5---------------------
    |----------------------------------------------------------
    |----------------------------------------------------------
    |----------------------------------------------------------
    |-777766664444------777766664444---------------------------
    |-5555444422227777--5555444422222222-----------------------
    |-------------5555--------------0000-----------------------
    
    |----------------------------------------------------------
    |----------------------------------------------------------
    |----------------------------------------------------------
    |----------------------------------------------------------
    |---------------------3p2-----5-5-5-5-3-5---5-5h6-5p3------
    |-3/5-5-5-3-5---5-3-5-----5p3-------------------------5p3--
    he's the one...
    |----------------------------------------------------------
    |----------------------------------------------------------
    |-----------------7----------------------------------------
    |-7------5--------7------7---------------------------------
    |-7------5--------5------7---------------------------------
    |-5------3---------------5---------------------------------
    
    |-------------------------------------------------------------
    |-------------------------------------------------------------
    |-------------------------------------------------------------
    |---------------------7-10--7-------------77777777---7-10--7--
    |-55555555-44444444---7-10--7----55555555-55555555---7-10--7--
    |-33333333-22222222---5--8--5----33333333------------5--8--5--
    Solo:
    |----------------------------------------------------------
    |---------------8^---9^--8-5-------------------------------
    |--7^^^p5--------------------7-----------------------------
    |---------7--------------------7------7-5------------------
    |-----------------------------------------7-75-3-5^-5-----
    |----------------------------------------------------------
    
    |----------------------------------------------------------
    |----------------------------------------------------------
    
    Узнай ВСЕ о своем друге в ВК или FB
    |------------------------------------------------5-4-5-7--- |----7-5-------------------------------------5-7----------- |---------7-5---3-5-5^-3-5^-3----3-2-3-3/5-7--------------- |-5----------------------------5--------------------------- |--------------------------------------------5------------- |-------------------------------8^---8----8^----8-5-5------ |-5-7^-5-7^-5-7^-5------------------------------------7-5-- |------------------7~~~------------------------------------ |---------------------------------------------------------- |---------------------------------------------------------- |--------------------------------------8------------------- |---------------------------------------------------------- |-7^-7^p5-7^-7^p5-7^-7^p5-7^-7^p5--7^----^7---------------- |---------------------------------------------------------- |---------------------------------------------------------- |---------------------------------------------------------- |---------------------------------------------------------- |-5--5--5----8---8---8---10--10--10---13---17-------------- |-7^-7^-7^--10^-10^-10^--12^-12^-12^--15^--19^------------- |---------------------------------------------------------- |---------------------------------------------------------- |---------------------------------------------------------- |----17h20p17----17h20p17-|----20p17----20p17----20p17------ |-17----------17----------|-17-------17-------17------------ |-------------------------|--------------------------------- |-------------------------|--------------------------------- |-------------------------|--------------------------------- |-------------------------|--------------------------------- |-----5------5-------------8------------------8------------ |-----8^-----8^------8/10-----------------------5--5--5---- |------------------------------75-5^^----7-7^----7^-7^-7^--- |-------------------------------------7-7-------------------- |------------------------------------------------------------ |------------------------------------------------------------ |--------8-10-10^---------------15^---------8-10^^8-----8---- |--8/10-------------------13-15-------8/10-----------10------ |-------------------12/14------------------------------------ |------------------------------------------------------------ |------------------------------------------------------------ |------------------------------------------------------------ |------5---------------------------------------------------- |---------8------------------------------------------------- |-7^^-------7^^p5---------------------5--------------------- |-----------------7--------------7--7---7------------------- |---------------------7-7-7/9--7---------------------------- |----------------------------------------------------------- |---------------------------------------------------------- |--------8/10-8----------------------5-/10--8/10--8/10-- |----------------7-5-7^-7^p5-----5-7----------------------- |-5/7-7----------------------5-7--------------------------- |---------------------------------------------------------- |---------------------------------------------------------- |----8----------------------------------------------------- |---------------------------------------------------------- |-7^----7^p5----5--7p5-7p5-7p5-7p5-----7^-7^~~~------------ |------------7---7-----------------7----------------------- |---------------------------------------------------------- |---------------------------------------------------------- |---------------------------------------------------------- |----------------8^--8-5----------------------------------- |-7^-7-5-7---------------7-5------------------------------- |----------------------------5-7-------------------------- |---------------------------------------------------------- |----------------------------------------------------------

    www.rdrop.com/~mjames/sabbath/
    поиск лекарств
    список лекарств






    О сайтеАккордыХит-парадПоискУроки ФорумыИщу песню
    ПрограммыСвежачок-сПодпискаСтатьи
    Яндекс.Метрика