Табулатура Black Sabbath | A hard road  (2) гитара табулатуры уроки тексты песен Black Sabbath текст lyrics песня аккорды песни ноты нота электрогитара струна  
   А Б В Г Д Е Ж З И К Л М Н О П Р С Т У Ф Х Ч Ш Ы Э Ю Я       Разные песни
1-9 A B C D E F G H I J K L M N O P Q R S T U V W Y Z      Все исполнители in english

    



группа Black Sabbath, Табулатура песни A hard road (2)

Работа в Европе для граждан РФ, Украины, СНГ

  • минимальная зарплата $500.
  • виза и контракт на полгода, возможно продление
  • проживание оплачивает работодатель
  • нужен только загранпаспорт
  • оформление 190 €
  • данное предложение - отличная возможность эмигрировать в Европу и закрепиться здесь навсегда.

  • Мы свяжемся с Вами по WhatsApp или Viber и ответим на любые вопросы.
    на нашем сайте можно почитать подробнее »

    Группа: Black Sabbath - другие аккорды (243),   о группе (21 статей),   диски (20),   фотографии (152)
    Табулатура песни: A hard road (2)
    Просмотров: 1301
    Прислал: Sabbath (sabbath54@mail.ru)




        
    from- Michael James 
    Never Say Die
    Black Sabbath - Never Say Die (1978)
    
    |-----------------------|
    |-----------------------|
    |--2---4---7---2--------|
    |--2---4---7---2--------|
    |--0---2---5---0--2p0---|
    |--------------------3^-|
    
    |-------------------------------------------------------|
    |-------------------------------------------------------|
    |-------------------------------------------------------|
    |-------------------------------------------------------|
    |-3-----------------3-3-----2-2-----0-0-----------------|
    |-1-----------------------------------------3-3-----1-1-|
    
    |--------------------------------------|
    |--------------------------------------|
    |--------------------------------------|
    |-------------------------0-0-----2----|
    |-3-3-----2-2-----3-3---------------3--|
    |--------------------------------------|
    
    |--------------------------------------||---|---|---|---|
    |--------------------------------------||---|---|---|---|
    |--------------------------------------||---|---|---|---|
    |--------------------------------------||---|---|---|---|
    |-3-3-----2-2-----0-0------------------||---|-0-|-2-|-3-|
    |-------------------------3-3-----1-3--||---|---|---|---|
    
    |-------------------------------------------|
    |-12--------12--------10--------10----------|
    |----12---------12-------10--------10-----o-|
    |-------12--------12--------10--------10--o-|
    |-------------------------------------------|
    |-------------------------------------------|
    
    |-------0------------0-----------------------------------|
    |-----0----0-------0----0----------7-------7-----7-------|
    |---5--------5---5--------5------7----7------7------7----|
    |------------------------------7--------7------7------7--|
    |-0--------------------------5---------------------------|
    
    Узнай ВСЕ о своем друге в ВК или FB
    |--------------------------------------------------------| solo: |-----------------------------------------------| |----------------------------------5h8p5-----5--| |-9p7--7--------------------5--7^--------7^-----| |----10-10p9-10p9p7-9-7~~-----------------------| |-----------------------------------------------| |-----------------------------------------------| |--------------------------------------------------| |-5h8p5--5h8---------------------------------------| |------7^---5-7-5----------------------------------| |------------7---7/177------7-7------7-h-9--9^-9^-| |-----------------------5-7/9------7h9-------------| |--------------------------------------------------| |------------------------------------------------------8-10-| |----------------------5h8-5---5h8-5-----5h8-5---5h8/10-----| |---------------7^~~~-------7^------7-7^------7^------------| |-9^-9^97-7-------------------------------------------------| |--------9--------------------------------------------------| |-----------------------------------------------------------| |-10p8--8-8--------------------------|-----------------------| |-----10---1087p5------------------|-----------------------| |------------------7p5-7p5-----------|------------5h7-7p5h7--| |---------------------7---7^~~~/(14)-|--------567------------| |------------------------------------|---3/5-7---------------| |------------------------------------|-5---------------------| |--------------------------|------------------------| |-----5-8p5h8--------------|------------------------| |-5h8---------7p5h7p5-5----|------------------------| |--------------------7-7p5-|-7p5--------------------| |--------------------------|----75p3---5p3---5p3---| |--------------------------|----------5-----5-----5-| |------------------------------------------------------------------| |------------------------------------------------------------------| |------------------------------------------------------------------| |------------------------------------------------------------------| |------------------------------------------------------------------| |-5------5---p---/12------5------5---p---/12----5------5---p---/12-|

    www.rdrop.com/~mjames/sabbath/
    найти лекарство
    список лекарств






    О сайтеАккордыХит-парадПоискУроки ФорумыИщу песню
    ПрограммыСвежачок-сПодпискаСтатьи
    Яндекс.Метрика