Табулатура Black Sabbath | She`s Gone гитара табулатуры уроки тексты песен Black Sabbath текст lyrics песня аккорды песни ноты нота электрогитара струна  
   А Б В Г Д Е Ж З И К Л М Н О П Р С Т У Ф Х Ч Ш Ы Э Ю Я       Разные песни
1-9 A B C D E F G H I J K L M N O P Q R S T U V W Y Z      Все исполнители in english

    



группа Black Sabbath, Табулатура песни She`s Gone

Продолжаем грести бабос на ботах в Telegram.
Только в этот раз есть вариант автоматизировать это дело, привлекая рефералов. Вы можете заработать если »

Группа: Black Sabbath - другие аккорды (243),   о группе (21 статей),   диски (20),   фотографии (152)
Табулатура песни: She`s Gone
Просмотров: 1629
Прислал: Sabbath (sabbath54@mail.ru)




    
from- Michael James 
She's Gone
Black Sabbath - Technical Ecstacy (1976)

|--------0--------0--------0--------0-------0-------0-------0-------0-
|------0---0-------------0---0------------0---0-----------0---0-------
|---------------------------------------8-------8-------8-------8-----
|-9-------------9---9-------------9---9-----------9---9-----------9---
|---10-------10-------10-------10-------------------------------------
|---------------------------------------------------------------------

|---------0---------0---------0---------0---------0---------0---------0---------0-
|-------0---0---------------0---0---------------0---0---------------0---0---------
|----11-------11---------11-------11---------12-------12---------12-------12------
|-12-------------12---12-------------12---11-------------11---11-------------11---
|---------------------------------------------------------------------------------
|---------------------------------------------------------------------------------

|--------0--------0-------0-------0-------0-------0-------0-------0-
|------0---0------------0---0-----------0---0-----------0---0-------
|----9-------9--------9-------9-------8-------8-------8-------8-----
|-10-----------10---8-----------8---9-----------9---9-----------9---
|-------------------------------------------------------------------
|-------------------------------------------------------------------

|-------0-------0-------0-------0-------2-------2-------2-------2-
|-----0---0-----------0---0-----------0---0-----------0---0-------

Продолжаем грести бабос на ботах в Telegram.
Только в этот раз есть вариант автоматизировать это дело, привлекая рефералов. Вы можете заработать если »

|---4-------4-------4-------4-------4-------4-------4-------4----- |-2-----------2---2-----------2---0-----------0---0-----------0--- |----------------------------------------------------------------- |----------------------------------------------------------------- |-------5-----7---------5-----7---------5-----7---------5-----7---- |-----5---5-----5-----5---5-----5-----5---5-----5-----5---5-----5-- |---5-------5-------5-------5-------5-------5-------5-------5------ |-7---------------6---------------5---------------4---------------- |------------------------------------------------------------------ |------------------------------------------------------------------ |-------0-------0-------0-------0-------0-------0-------0-------0-- |-----0---0-----------0---0-----------0---0-----------0---0-------- |---4-------4-------6-------6-------8-------8-------8-------8------ |-5-----------5---7-----------7---9-----------9---9-----------9---- |------------------------------------------------------------------ |------------------------------------------------------------------

www.rdrop.com/~mjames/sabbath/
найти лекарство
список лекарств






О сайтеАккордыХит-парадПоискУроки ФорумыИщу песню
ПрограммыСвежачок-сПодпискаСтатьи
Яндекс.Метрика