Табулатура Black Sabbath | Rock `n` Roll Doctor гитара табулатуры уроки тексты песен Black Sabbath текст lyrics песня аккорды песни ноты нота электрогитара струна  
   А Б В Г Д Е Ж З И К Л М Н О П Р С Т У Ф Х Ч Ш Ы Э Ю Я       Разные песни
1-9 A B C D E F G H I J K L M N O P Q R S T U V W Y Z      Все исполнители in english

    



группа Black Sabbath, Табулатура песни Rock `n` Roll Doctor

Продолжаем грести бабос на ботах в Telegram.
Только в этот раз есть вариант автоматизировать это дело, привлекая рефералов. Вы можете заработать если »

Группа: Black Sabbath - другие аккорды (243),   о группе (21 статей),   диски (20),   фотографии (152)
Табулатура песни: Rock `n` Roll Doctor
Просмотров: 1330
Прислал: Sabbath (sabbath54@mail.ru)




    
from- Michael James 
Rock N' Roll Doctor
Black Sabbath - Technical Ecstacy (1976)

                           Repeat each twice
|------------------------------||----------------------------------------
|------------------------------||----------------------------------------
|-7h9---9p7------------7-9-9p7-||-9h11--11-11p9---------------9-11-11p9--
|-----------9-9----7-9---------||---------------11-11----9-11------------
|------------------------------||----------------------------------------
|------------------------------||----------------------------------------

|----------------------------------------------------------
|----------------------------------------------------------
|-11------10------10------10-9-----------------------------
|-11--11--10--10--10--10--10-9-----------------------------
|--9--11---8--10---8--10---8-7-----------------------------
|------9-------8-------8-----------------------------------

|------------------------------------------------------------
|------------------------------------------------------------
|---------2-------------2-2-------------2------------2-2-----
|-2-2-----2-----2-2-----2-2-----2-2-----2----2-2-----2-2-----
|-0-0-3h4-------0-0-3h4-----3-3-0-0-3h4------0-0-3h4-----3-3-
|------------------------------------------------------------

|-----------------0-------------------------------0-----------
|-------------------0---4-----2-4-----------------------------
|-----4-----2---------4---4-2---------4-----2---------7-------

Продолжаем грести бабос на ботах в Telegram.
Только в этот раз есть вариант автоматизировать это дело, привлекая рефералов. Вы можете заработать если »

|-------------4-------------------------------4-------7------- |-2-------2-----2-----------------2-------2-----2-----5------- |------------------------------------------------------------- (end of solo) |-------8-10-10^^10p8-10-10-----------13-15-^15-13-15^-----| |--8/10-------------------------13/15----------------------| |----------------------------------------------------------| |----------------------------------------------------------| |----------------------------------------------------------| |----------------------------------------------------------| | | |----------------------------------------------------------| |----------------------------------------------------------| |--5---------4--------2---------5-----------4--------------| |--5---------4--------2---------5-----------4------5-------| |--3---------2--------0---------3-----------2------5-------| |--------------------------------------------------3-------| |------------------------------------------------------------ |------------------------------------------------------------ |-----5---4-2-----5---4-2----------5---4-2------------------- |-2---5---4-2-----5---4-2------2---5---4-2------------------- |-0-------------0---------0-3^-0-0---------0-3-0-3-0-3-0---0- |--------------------------------------------------------3---

www.rdrop.com/~mjames/sabbath/
лекарство в аптеке
список лекарств






О сайтеАккордыХит-парадПоискУроки ФорумыИщу песню
ПрограммыСвежачок-сПодпискаСтатьи
Яндекс.Метрика