Табулатура Black Sabbath | Gypsy гитара табулатуры уроки тексты песен Black Sabbath текст lyrics песня аккорды песни ноты нота электрогитара струна  
   А Б В Г Д Е Ж З И К Л М Н О П Р С Т У Ф Х Ч Ш Ы Э Ю Я       Разные песни
1-9 A B C D E F G H I J K L M N O P Q R S T U V W Y Z      Все исполнители in english

    



группа Black Sabbath, Табулатура песни Gypsy

Продолжаем грести бабос на ботах в Telegram.
Только в этот раз есть вариант автоматизировать это дело, привлекая рефералов. Вы можете заработать если »

Группа: Black Sabbath - другие аккорды (243),   о группе (21 статей),   диски (20),   фотографии (152)
Табулатура песни: Gypsy
Просмотров: 1367
Прислал: Sabbath (sabbath54@mail.ru)




    
from- Michael James 
Gypsy
Black Sabbath - Technical Ecstacy (1976)

|------------------------------------------------------------
|-----------8-------------------------8----------------------
|--------8--8--10------------------8--8--10------------------
|--8-----8--6--10-----------8------8--6--10------------------
|--8-----6------8-----------8------6------8------------------
|--6------------------------6--------------------------------

|--------------------------------------------------------------------
|--------------------------------------------------------------------
|---------------------3------3/5-------------------------3------3/5--
|-5--3--2--3-------3--1p0-3--1/3--5--5--3--2--3-------3--1p0-3--1/3--
|-3--1--0--1----3--1------1-------3--3--1--0--1----3--1------1-------
|---------------1----------------------------------1-----------------
"she took me..."
|------------------------------------------------------------
|------------------------------------------------------------
|--7-----9-----10-------12---------7-------9-----10------12--
|--7-----9-----10-------12---------7-------9-----10------12--
|--5-----7------8-------10---------5-------7------8------10--
|------------------------------------------------------------

|----------------------------------------------------------

Продолжаем грести бабос на ботах в Telegram.
Только в этот раз есть вариант автоматизировать это дело, привлекая рефералов. Вы можете заработать если »

|---------------------------------------------------------- |---------------------------------------------------------- |-7-------------14------------12-----------12----------12-- |-7-------------14------------12-----------12----------12-- |-5------5-7-8/-12-----5-7-8/-10----5-7-8/-14---5-7-8/-10-- |------------------------------------ |------------------------------------ |------------------------------------ |---------11-----------10------------ |---------11-----------10------------ |--5-7-8/-9-----5-7-8/-8------------- "so you want to be a gypsy" |--------------------------||-------------------------------- |--------------------------||-------------------------------- |---------------------10---||--9-9-9-9-9--------------------- |--7------------------10---||--9-9-9-9-9--------------------- |--7-------------------8---||--7-7-7-7-7--------------------- |--5-----------------------||--------------------------------

www.rdrop.com/~mjames/sabbath/
искать в аптеке
список лекарств






О сайтеАккордыХит-парадПоискУроки ФорумыИщу песню
ПрограммыСвежачок-сПодпискаСтатьи
Яндекс.Метрика