Табулатура Black Sabbath | It`s Alright гитара табулатуры уроки тексты песен Black Sabbath текст lyrics песня аккорды песни ноты нота электрогитара струна  
   А Б В Г Д Е Ж З И К Л М Н О П Р С Т У Ф Х Ч Ш Ы Э Ю Я       Разные песни
1-9 A B C D E F G H I J K L M N O P Q R S T U V W Y Z      Все исполнители in english

    



группа Black Sabbath, Табулатура песни It`s Alright

Продолжаем грести бабос на ботах в Telegram.
Только в этот раз есть вариант автоматизировать это дело, привлекая рефералов. Вы можете заработать если »

Группа: Black Sabbath - другие аккорды (243),   о группе (21 статей),   диски (20),   фотографии (152)
Табулатура песни: It`s Alright
Просмотров: 1324
Прислал: Sabbath (sabbath54@mail.ru)




    

from- Michael James 
It's Alright
Black Sabbath - Technical Ecstacy (1976)

Piano: arr. for guitar:
|----------------------------------------------------------
|-5--5--5--5--5--5--5--5--5--5--5--5--5--5--5--5-----------
|-5--5--5--5--4--4--4--4--5--5--5--5--5--5--5--5-----------
|-5--5--5--5--5--5--5--5--7--7--7--7--5--5--5--5-----------
|-3-----------2-----------0--------------------------------
|-------------------------------------3--------------------
|-------------------------------------------------------------
|-10--10--10--10--10--10--10--10--5--5--5--5--6--6--5--5-5-5--
|-10--10--10--10--10--10--10--10--5--5--5--5--5--5--7--7-5-7--
|-10--10--10--10--10--10--10--10--5--5--5--5--5--5--5--5-5-5--
|--8---------------8--------------3---------------------------
|----------------8--------------------------------------------

***Chords for verse***
***C  B  A  G  F  F  C***

Solo:
|----------------------------------------------------------
|----------------------------------------------------------
|---------5-7-7^-5-----5/7---------5-7-7^-5-5-------------
|-----5/7-----------------------5/7------------------------
|-8~~-----------------------8~~----------------------------

Продолжаем грести бабос на ботах в Telegram.
Только в этот раз есть вариант автоматизировать это дело, привлекая рефералов. Вы можете заработать если »

|---------------------------------------------------------- |---------------------------------------------------------- |---------------------------------------------------------- |----7-8-7h8p7----7------7-8-10-7-8-/10---10-8-7h8p7-5h7p5- |-10-----------10---8-10----------------------------------- |---------------------------------------------------------- |---------------------------------------------------------- |---------------------------------------------------------- |---------------------------------------------------------- |----------------------------------5-7-7^-5-5----5/7------ |-7-5-----3h4-5~~--------3~~---5/7---------------------3~~- |---------------------------------------------------------- |---------------------------------------------------------- |-------------------7---7---7---7------------------------------- |------------------11^-11^-11^-11^-11^-11-8----8---------13-13^- |-----5-7-7^-5-5----------------------------10---10-8----------- |-5/7-------------------------------------------------10-------- |--------------------------------------------------------------- |--------------------------------------------------------------- |------------------ |-^13-------------- |-----12-12~~------ |------------------ |------------------ |------------------

www.rdrop.com/~mjames/sabbath/
искать в аптеке
список лекарств






О сайтеАккордыХит-парадПоискУроки ФорумыИщу песню
ПрограммыСвежачок-сПодпискаСтатьи
Яндекс.Метрика