Табулатура Black Sabbath | Fluff   (Instrumental ) гитара табулатуры уроки тексты песен Black Sabbath текст lyrics песня аккорды песни ноты нота электрогитара струна  
   А Б В Г Д Е Ж З И К Л М Н О П Р С Т У Ф Х Ч Ш Ы Э Ю Я       Разные песни
1-9 A B C D E F G H I J K L M N O P Q R S T U V W Y Z      Все исполнители in english

    



группа Black Sabbath, Табулатура песни Fluff (Instrumental )

Работа в Европе для граждан РФ, Украины, СНГ

  • минимальная зарплата $500.
  • виза и контракт на полгода, возможно продление
  • проживание оплачивает работодатель
  • нужен только загранпаспорт
  • оформление 190 €
  • данное предложение - отличная возможность эмигрировать в Европу и закрепиться здесь навсегда.

  • Мы свяжемся с Вами по WhatsApp или Viber и ответим на любые вопросы.
    на нашем сайте можно почитать подробнее »

    Группа: Black Sabbath - другие аккорды (243),   о группе (21 статей),   диски (20),   фотографии (152)
    Табулатура песни: Fluff (Instrumental )
    Просмотров: 1389
    Прислал: Sabbath (sabbath54@mail.ru)




        
    From: Steve Garner 
    Fluff
    Black Sabbath - Sabbath, Bloody Sabbath (1974)
     Gtr.I
    |------------2------------------2-------|----------2-----------------2-------|
    |--------3------3------------3-----3----|-------0-----0-----------0-----0----|
    |----2--------------2-----2-----------2-|----0-----------0-----0-----------0-|
    |-0--------------------0----------------|-0-----------------0----------------|
    |---------------------------------------|------------------------------------|
    |---------------------------------------|------------------------------------|
     Gtr.I
    |------------2------------------2-------|----------2-----------------2-------|
    |--------3------3------------3-----3----|-------0-----0-----------0-----0----|
    |----2--------------2-----2-----------2-|----0-----------0-----0-----------0-|
    |-0--------------------0----------------|-0-----------------0----------------|
    |---------------------------------------|------------------------------------|
    |---------------------------------------|------------------------------------|
    |				  	|	 			     |
    |Gtr.II					|				     |
    |---------------------------------------|------------------------------------|
    |---------------------------------------|------------------------------------|
    |---------------------------------------|------------------------------------|
    |-4-5-7------------(7)-------------7/9--|------------------------------------|
    |---------------------------------------|-7--------------(7)-----------------|
    |---------------------------------------|------------------------------------|
     Gtr.I
    |----------2-----------------2--------|----------2-----------------2-----3--|
    |-------3-----3-----------3-----3-----|-------0-----0-----------0-----0-----|
    |----2-----------2-----2-----------2--|----0-----------0-----0--------------|
    |-0-----------------0-----------------|-0-----------------0-----------------|
    |-------------------------------------|-------------------------------------|
    |-------------------------------------|-------------------------------------|
    |                                     |                                     |
    |Gtr.II                               |                                     |
    |-------------------------------------|-------------------------------------|
    |-------------------------------------|-------------------------------------|
    |-------------------------------------|-------------------------------------|
    |-4-5-7------------(7)-----------7/9--|---------------------------------7-6-|
    |-------------------------------------|-7----------------(7)----------------|
    |-------------------------------------|-------------------------------------|
     Gtr.I
    |------------3------------------3-------|----------3-----------------3-------|
    |--------0------0------------0-----0----|-------2-----2-----------2-----2----|
    |----0--------------0-----0-----------0-|----2-----------2-----2-----------2-|
    |-2--------------------2----------------|-2-----------------2----------------|
    |---------------------------------------|------------------------------------|
    |---------------------------------------|------------------------------------|
    |					|				     |
    |Gtr.II                 		|	                             |
    |---------------------------------------|------------------------------------|
    |---------------------------------------|------------------------------------|
    |---------------------------------------|------------------------------------|
    |-5---------(5)--------7--------7/9-----|-7----------------(7)-----------7-6-|
    |---------------------------------------|------------------------------------|
    |---------------------------------------|------------------------------------|
    |					|				     |
    |Gtr.III				|				     |
    |------0--------0--------0--------0-----|-------0-------0-------0-------0----|
    |----0---0----0---0----0---0----0---0---|-----0---0---0---0---0---0---0---0--|
    |---7-----7--7-----7--7-----7--7-----7--|----9-------9-------9-------9-------|
    |--5--------5--------5--------5---------|---7-------7-------7-------7--------|
    |---------------------------------------|--0-------0-------0-------0---------|
    |---------------------------------------|------------------------------------|
    
     Gtr.I
    |------------3------------------3-------|----------3-----------------3-------|
    |--------0------0------------0-----0----|-------2-----2-----------2-----2----|
    |----0--------------0-----0-----------0-|----2-----------2-----2-----------2-|
    |-2--------------------2----------------|-2-----------------2----------------|
    |---------------------------------------|------------------------------------|
    |---------------------------------------|------------------------------------|
    |					|				     |
    |Gtr.II                 		|	                             |
    |---------------------------------------|------------------------------------|
    |---------------------------------------|------------------------------------|
    |---------------------------------------|------------------------------------|
    |-5---------(5)--------4----------------|------------------------------------|
    |-------------------------------5-------|-5/7--------------(7)---------------|
    |---------------------------------------|------------------------------------|
    |					|			  	     |
    |Gtr.III				|			     	     |
    |------0--------0--------0--------0-----|-------0-------0-------0-------0----|
    |----0---0----0---0----0---0----0---0---|-----0---0---0---0---0---0---0---0--|
    |---7-----7--7-----7--7-----7--7-----7--|----9-------9-------9-------9-------|
    |--5--------5--------5--------5---------|---7-------7-------7-------7--------|
    |---------------------------------------|--0-------0-------0-------0---------|
    |---------------------------------------|------------------------------------|
    
     Gtr.I
    |------------2------------------2-------|----------2-----------------2-------|
    |--------3------3------------3-----3----|-------0-----0-----------0-----0----|
    |----2--------------2-----2-----------2-|----0-----------0-----0-----------0-|
    |-0--------------------0----------------|-0-----------------0----------------|
    |---------------------------------------|------------------------------------|
    |---------------------------------------|------------------------------------|
    |					|	 		     	     |
    |Gtr.II					|				     |
    |---------------------------------------|------------------------------------|
    |---------------------------------------|------------------------------------|
    |---------------------------------------|------------------------------------|
    |-4-5-7------------(7)-------------7/9--|------------------------------------|
    |---------------------------------------|-7--------------(7)-----------------|
    |---------------------------------------|------------------------------------|
    |				 	|				     |
    |Gtr.III				|Gtr.IV    			     |
    |---------------------------------------|------------------------------------|
    |---------------------------------------|--------------10-----108-----------|
    |-------------------9--7---------------|---------9/11----11--119-----------|
    |----------------9-(9)-7---------------|------------------------------------|
    |--------------0-------(0)--------------|------------------------------------|
    |---------------------------------------|------------------------------------|
    
    
     Gtr.I
    |----------2-----------------2--------|----------2-----------------2-----3--|
    |-------3-----3-----------3-----3-----|-------0-----0-----------0-----0-----|
    |----2-----------2-----2-----------2--|----0-----------0-----0--------------|
    |-0-----------------0-----------------|-0-----------------0-----------------|
    |-------------------------------------|-------------------------------------|
    |-------------------------------------|-------------------------------------|
    |                                     |                                     |
    |Gtr.II                               |                                     |
    |-------------------------------------|-------------------------------------|
    |-------------------------------------|-------------------------------------|
    |-------------------------------------|-------------------------------------|
    |-4-5-7------------(7)-----------7/9--|---------------------------------7-6-|
    |-------------------------------------|-7----------------(7)----------------|
    |-------------------------------------|-------------------------------------|
    |				      |					    |
    |Gtr.III			      |	                  		    |
    |-------------------------------------|-------------------------------------|
    |-------------------------------------|-------------------------------------|
    |-------------------9--7-------------|-------------------------------------|
    |----------------9-(9)-7-------------|-------------------------------------|
    |--------------0-------(0)------------|-------------------------------------|
    |-------------------------------------|-------------------------------------|
    |				      |				            |
    |Gtr.IV				      |					    |
    |-------------------------------------|-------------------------------------|
    |---------1210----10/1210-----------|----------------10--12---------------|
    |-------------------------------------|----------9/11----------119---------|
    |-------------------------------------|-------------------------------------|
    |-------------------------------------|-------------------------------------|
    |-------------------------------------|-------------------------------------|
    
    
     Gtr.I
    |------------3------------------3-------|----------3-----------------3-------|
    |--------0------0------------0-----0----|-------2-----2-----------2-----2----|
    |----0--------------0-----0-----------0-|----2-----------2-----2-----------2-|
    |-2--------------------2----------------|-2-----------------2----------------|
    |---------------------------------------|------------------------------------|
    |---------------------------------------|------------------------------------|
    |					|				     |	     
    |Gtr.II                                 |	                             |
    |---------------------------------------|------------------------------------|
    |---------------------------------------|------------------------------------|
    |---------------------------------------|------------------------------------|
    |-5---------(5)--------7--------7/9-----|-7----------------(7)-----------7-6-|
    |---------------------------------------|------------------------------------|
    |---------------------------------------|------------------------------------|
    |					|				     |		     
    |Gtr.III			 	|			 	     |     
    |------0--------0--------0--------0-----|-------0-------0-------0-------0----|
    |----0---0----0---0----0---0----0---0---|-----0---0---0---0---0---0---0---0--|
    |---7-----7--7-----7--7-----7--7-----7--|----9-------9-------9-------9-------|
    |--5--------5--------5--------5---------|---7-------7-------7-------7--------|
    |---------------------------------------|--0-------0-------0-------0---------|
    |---------------------------------------|------------------------------------|
    |					|				     |
    |Gtr.IV				   	|				     |
    |---------------------------------------|------------------------------------|
    |---------------------------------------|------------------------------------|
    |---------------------------------------|-------(11)--11--(11)---------------|
    |---------------------------------------|------------------------------------|
    |---------------------------------------|------------------------------------|
    |---------------------------------------|------------------------------------|
    
    
     Gtr.I
    |------------3------------------3-------|----------3-----------------3-------|
    |--------0------0------------0-----0----|-------2-----2-----------2-----2----|
    |----0--------------0-----0-----------0-|----2-----------2-----2-----------2-|
    |-2--------------------2----------------|-2-----------------2----------------|
    |---------------------------------------|------------------------------------|
    |---------------------------------------|------------------------------------|
    |					|				     |
    |Gtr.II                 		|	                             |
    |---------------------------------------|------------------------------------|
    |---------------------------------------|------------------------------------|
    |---------------------------------------|------------------------------------|
    |-5---------(5)--------4----------------|------------------------------------|
    |-------------------------------5-------|-5/7--------------(7)---------------|
    |---------------------------------------|------------------------------------|
    |					|				     |
    |Gtr.III				|				     |	    
    |------0--------0--------0--------0-----|-------0-------0-------0-------0----|
    |----0---0----0---0----0---0----0---0---|-----0---0---0---0---0---0---0---0--|
    |---7-----7--7-----7--7-----7--7-----7--|----9-------9-------9-------9-------|
    |--5--------5--------5--------5---------|---7-------7-------7-------7--------|
    |---------------------------------------|--0-------0-------0-------0---------|
    |---------------------------------------|------------------------------------|
    
    Gtr.I
    |------------3------------------2-------|----------3--------2--------3-------|
    |--------3------3------------3-----3----|-------0-----0--------0--------0----|
    |----4-------------4------4-----------4-|----0-----------0-----------------0-|
    |-5--------------------4----------------|-2-----------------------2----------|
    |---------------------------------------|------------------------------------|
    |---------------------------------------|------------------------------------|
    |					|				     |
    |Gtrs II & III				|				     |
    |---------------------------------------|------------------------------------|
    |-------------------------------------8-|------------------------------------|
    |------------0--2--4---4/7--------7/9---|-97------------4--4/7--------------|
    |---------------------------------------|------------------------------------|
    |---------------------------------------|------------------------------------|
    |---------------------------------------|------------------------------------|
    |					|				     |
    |Gtr.IV					|				     |
    |---------------------------------------|------------------------------------|
    |---------------------------------------|------------------------------------|
    |---------------------------------------|---------------------11-11b(12)-(11)|
    |---------------------------------------|------------------------------------|
    |---------------------------------------|------------------------------------|
    |---------------------------------------|------------------------------------|
    
    
    
     Gtr.I
    |------------3------------------2-------|----------3--------2--------3-------|
    |--------3------3------------3-----3----|-------0-----0--------0--------0----|
    |----4-------------4------4-----------4-|----0-----------0-----------------0-|
    |-5--------------------4----------------|-2-----------------------2----------|
    |---------------------------------------|------------------------------------|
    |---------------------------------------|------------------------------------|
    |					|				     |
    |Gtrs II & III				|				     |
    |---------------------------------------|------------------------------------|
    |-------------------------------------8-|------------------------------------|
    |------------0--2--4---4/7--------7/9---|-97------------4--4/7--------------|
    |---------------------------------------|------------------------------------|
    |---------------------------------------|------------------------------------|
    |---------------------------------------|------------------------------------|
    |					|				     |
    |Gtr.IV					|				     |
    |---------------------------------------|------------------------------------|
    |---------------------------------------|------------------------------------|
    |---------------------------------------|---------------------11-11b(12)-(11)|
    |---------------------------------------|------------------------------------|
    |---------------------------------------|------------------------------------|
    |---------------------------------------|------------------------------------|
    
    
     Gtr.I
    |------------------------------2--------|----------0-----------------0-------|
    |-----------1---------------3-----3-----|-------0-----0-----------0-----0----|
    |--------2-----2---------4-----------4--|----0-----------0-----0-----------0-|
    |-----2-----------2---4-----------------|-2-----------------2----------------|
    |--0------------------------------------|------------------------------------|
    |---------------------------------------|------------------------------------|
    |					|				     |
    |Gtrs II & III				|				     |
    |---------------------------------------|------------------------------------|
    |---------------------------------------|------------------------------------|
    |-----------5--4--5--7------------------|-------2/4--2/42--0--2/4-----------|
    |---------------------------------------|------------------------------------|
    |---------------------------------------|------------------------------------|
    |---------------------------------------|------------------------------------|
     Gtr.I
    |------------------------------2--------|----------2-----------------2-------|
    |--------1--1---------------3-----3-----|-------3-----3-----------2-----2----|
    |--------------0---------2-----------2--|----4-----------4-----4-----------4-|
    |----(2)----------2---0-----------------|-4-----------------4----------------|
    |-(3)-----------------------------------|------------------------------------|
    |---------------------------------------|------------------------------------|
    |					|				     |
    |Gtrs II & III				|				     |
    |---------------------------------------|------------------------------------|
    
    Узнай ВСЕ о своем друге в ВК или FB
    |---------------------------------------|----------------------------------3-| |--5-----------4--5--7------------------|-------6--6-----4--42--------2/4---| |---------------------------------------|------------------------------------| |---------------------------------------|------------------------------------| |---------------------------------------|------------------------------------| | | | |Gtr.IV | | |---------------------------------------|------------------------------------| |---------------------------------------|------------------------------------| |-----------------------------9b(11)--7-|-9----------------------------------| |---------------------------------------|------------------------------------| |---------------------------------------|------------------------------------| |---------------------------------------|------------------------------------| Gtr.I |---------------------3--------3--------| |-----------2------------2--------2-----| |--------2-----2------------2--------2--| |-----2-----------2---------------------| |--0------------------------------------| |---------------------------------------| | | |Gtrs II & III | |---------------------------------------| |---------------------------------------| |--42--------------(2)-----------------| |---------------------------------------| |---------------------------------------| |---------------------------------------| | | |Gtr.IV | |---------------------------------------| |-------10--10--(10)--10/12--108-------| |---------------------------------------| |---------------------------------------| |---------------------------------------| |---------------------------------------| Gtr.I |------------2------------------2-------|----------2-----------------2-------| |--------3------3------------3-----3----|-------0-----0-----------0-----0----| |----2--------------2-----2-----------2-|----0-----------0-----0-----------0-| |-0--------------------0----------------|-0-----------------0----------------| |---------------------------------------|------------------------------------| |---------------------------------------|------------------------------------| | | | |Gtr.II | | |---------------------------------------|------------------------------------| |---------------------------------------|------------------------------------| |---------------------------------------|------------------------------------| |-4-5-7------------(7)-------------7/9--|------------------------------------| |---------------------------------------|-7--------------(7)-----------------| |---------------------------------------|------------------------------------| | | | |Gtr.III |Gtr.IV | |---------------------------------------|------------------------------------| |---------------------------------------|--------------10-----108-----------| |-------------------9--7---------------|---------9/11----11--119-----------| |----------------9-(9)-7---------------|------------------------------------| |--------------0-------(0)--------------|------------------------------------| |---------------------------------------|------------------------------------| Gtr.I |----------2-----------------2--------|----------2-----------------2-----3--| |-------3-----3-----------3-----3-----|-------0-----0-----------0-----0-----| |----2-----------2-----2-----------2--|----0-----------0-----0--------------| |-0-----------------0-----------------|-0-----------------0-----------------| |-------------------------------------|-------------------------------------| |-------------------------------------|-------------------------------------| | | | |Gtr.II | | |-------------------------------------|-------------------------------------| |-------------------------------------|-------------------------------------| |-------------------------------------|-------------------------------------| |-4-5-7------------(7)-----------7/9--|---------------------------------7-6-| |-------------------------------------|-7----------------(7)----------------| |-------------------------------------|-------------------------------------| | | | |Gtr.III | | |-------------------------------------|-------------------------------------| |-------------------------------------|-------------------------------------| |-------------------9--7-------------|-------------------------------------| |----------------9-(9)-7-------------|-------------------------------------| |--------------0-------(0)------------|-------------------------------------| |-------------------------------------|-------------------------------------| | | | |Gtr.IV | | |-------------------------------------|-------------------------------------| |---------10/1210----10/1210--------|----------12--10-------10--8--------| |-------------------------------------|------------------11--(11)-9--------| |-------------------------------------|-------------------------------------| |-------------------------------------|-------------------------------------| |-------------------------------------|-------------------------------------| Gtr.I |------------3------------------3-------|----------3-----------------3-------| |--------0------0------------0-----0----|-------2-----2-----------2-----2----| |----0--------------0-----0-----------0-|----2-----------2-----2-----------2-| |-2--------------------2----------------|-2-----------------2----------------| |---------------------------------------|------------------------------------| |---------------------------------------|------------------------------------| | | | |Gtr.II | | |---------------------------------------|------------------------------------| |---------------------------------------|------------------------------------| |---------------------------------------|------------------------------------| |-5---------(5)--------7--------7/9-----|-7----------------(7)-----------7-6-| |---------------------------------------|------------------------------------| |---------------------------------------|------------------------------------| | | | |Gtr.III | | |------0--------0--------0--------0-----|-------0-------0-------0-------0----| |----0---0----0---0----0---0----0---0---|-----0---0---0---0---0---0---0---0--| |---7-----7--7-----7--7-----7--7-----7--|----9-------9-------9-------9-------| |--5--------5--------5--------5---------|---7-------7-------7-------7--------| |---------------------------------------|--0-------0-------0-------0---------| |---------------------------------------|------------------------------------| | | | |Gtr.IV | | |---------------------------------------|------------------------------------| |---------------------------------------|------------------------------------| |---------------------------------------|---------1211-----(11)-------------| |---------------------------------------|------------------------------------| |---------------------------------------|------------------------------------| |---------------------------------------|------------------------------------| Gtr.I |------------3------------------3-------|----------3-----------------3-------| |--------0------0------------0-----0----|-------2-----2-----------2-----2----| |----0--------------0-----0-----------0-|----2-----------2-----2-----------2-| |-2--------------------2----------------|-2-----------------2----------------| |---------------------------------------|------------------------------------| |---------------------------------------|------------------------------------| | | | |Gtr.II | | |---------------------------------------|------------------------------------| |---------------------------------------|------------------------------------| |---------------------------------------|------------------------------------| |-5---------(5)--------4----------------|------------------------------------| |-------------------------------5-------|-5/7--------------(7)---------------| |---------------------------------------|------------------------------------| | | | |Gtr.III | | |------0--------0--------0--------0-----|-------0-------0-------0-------0----| |----0---0----0---0----0---0----0---0---|-----0---0---0---0---0---0---0---0--| |---7-----7--7-----7--7-----7--7-----7--|----9-------9-------9-------9-------| |--5--------5--------5--------5---------|---7-------7-------7-------7--------| |---------------------------------------|--0-------0-------0-------0---------| |---------------------------------------|------------------------------------| Gtr.I |------------2------------------2-------|----------2-----------------2-------| |--------3------3------------3-----3----|-------0-----0-----------0-----0----| |----2--------------2-----2-----------2-|----0-----------0-----0-----------0-| |-0--------------------0----------------|-0-----------------0----------------| |---------------------------------------|------------------------------------| |---------------------------------------|------------------------------------| | | | |Gtr.II | | |---------------------------------------|------------------------------------| |---------------------------------------|------------------------------------| |---------------------------------------|------------------------------------| |-4-5-7------------(7)-------------7/9--|------------------------------------| |---------------------------------------|-7--------------(7)-----------------| |---------------------------------------|------------------------------------| | | | |Gtr.III |Gtr.IV | |---------------------------------------|------------------------------------| |---------------------------------------|---------8/10--10-----108----------| |-------------------9--7---------------|---------9/11-----11--119----------| |----------------9-(9)-7---------------|------------------------------------| |--------------0-------(0)--------------|------------------------------------| |---------------------------------------|------------------------------------| Gtr.I |----------2-----------------2--------|----------2-----------------2-----3--| |-------3-----3-----------3-----3-----|-------0-----0-----------0-----0-----| |----2-----------2-----2-----------2--|----0-----------0-----0--------------| |-0-----------------0-----------------|-0-----------------0-----------------| |-------------------------------------|-------------------------------------| |-------------------------------------|-------------------------------------| | | | |Gtr.II | | |-------------------------------------|-------------------------------------| |-------------------------------------|-------------------------------------| |-------------------------------------|-------------------------------------| |-4-5-7------------(7)-----------7/9--|---------------------------------7-6-| |-------------------------------------|-7----------------(7)----------------| |-------------------------------------|-------------------------------------| | | | |Gtr.III | | |------------------------------------ |-------------------------------------| |-------------------------------------|-------------------------------------| |-------------------9--7-------------|-------------------------------------| |----------------9-(9)-7-------------|-------------------------------------| |--------------0-------(0)------------|-------------------------------------| |-------------------------------------|-------------------------------------| | | | |Gtr.IV | | |-------------------------------------|-------------------------------------| |---------10/1210------10/1210------|-----------------10--12--------------| |-------------------12----------------|-----------9/11----------119--------| |-------------------------------------|-------------------------------------| |-------------------------------------|-------------------------------------| |-------------------------------------|-------------------------------------| Gtr.I |------------3------------------3-------|----------3-----------------3-------| |--------0------0------------0-----0----|-------2-----2-----------2-----2----| |----0--------------0-----0-----------0-|----2-----------2-----2-----------2-| |-2--------------------2----------------|-2-----------------2----------------| |---------------------------------------|------------------------------------| |---------------------------------------|------------------------------------| | | | |Gtr.II | | |---------------------------------------|------------------------------------| |---------------------------------------|------------------------------------| |---------------------------------------|------------------------------------| |-5---------(5)--------7--------7/9-----|-7----------------(7)-----------7-6-| |---------------------------------------|------------------------------------| |---------------------------------------|------------------------------------| | | | |Gtr.III | | |------0--------0--------0--------0-----|-------0-------0-------0-------0----| |----0---0----0---0----0---0----0---0---|-----0---0---0---0---0---0---0---0--| |---7-----7--7-----7--7-----7--7-----7--|----9-------9-------9-------9-------| |--5--------5--------5--------5---------|---7-------7-------7-------7--------| |---------------------------------------|--0-------0-------0-------0---------| |---------------------------------------|------------------------------------| Gtr.I |------------3------------------3-------|----------3-----------------3-------| |--------0------0------------0-----0----|-------2-----2-----------2-----2----| |----0--------------0-----0-----------0-|----2-----------2-----2-----------2-| |-2--------------------2----------------|-2-----------------2----------------| |---------------------------------------|------------------------------------| |---------------------------------------|------------------------------------| | | | |Gtr.II | | |---------------------------------------|------------------------------------| |---------------------------------------|------------------------------------| |---------------------------------------|------------------------------------| |-5---------(5)--------4----------------|------------------------------------| |-------------------------------5-------|-5/7--------------(7)---------------| |---------------------------------------|------------------------------------| | | | |Gtr.III | | |------0--------0--------0--------0-----|-------0-------0-------0-------0----| |----0---0----0---0----0---0----0---0---|-----0---0---0---0---0---0---0---0--| |---7-----7--7-----7--7-----7--7-----7--|----9-------9-------9-------9-------| |--5--------5--------5--------5---------|---7-------7-------7-------7--------| |---------------------------------------|--0-------0-------0-------0---------| |---------------------------------------|------------------------------------| Gtr.I |---------------------------------------| |--^3-----------------------------------| |--^2-----------------------------------| |--^0-----------------------------------| |--^0-----------------------------------| |---------------------------------------| | | |Gtr.II | |---------------------------------------| |---------------------------------------| |---------------------------------------| |---5p4---------------------------------| |--------5------------------------------| |---------------------------------------|

    www.rdrop.com/~mjames/sabbath/
    найти лекарство
    список лекарств

    www.parket03.ru Циклевка паркета стоимость комментарии Москва

    parket03.ru








    О сайтеАккордыХит-парадПоискУроки ФорумыИщу песню
    ПрограммыСвежачок-сПодпискаСтатьи
    Яндекс.Метрика