Табулатура Black Sabbath | Am I Going Insane  (2) гитара табулатуры уроки тексты песен Black Sabbath текст lyrics песня аккорды песни ноты нота электрогитара струна  
   А Б В Г Д Е Ж З И К Л М Н О П Р С Т У Ф Х Ч Ш Ы Э Ю Я       Разные песни
1-9 A B C D E F G H I J K L M N O P Q R S T U V W Y Z      Все исполнители in english

    



группа Black Sabbath, Табулатура песни Am I Going Insane (2)

Продолжаем грести бабос на ботах в Telegram.
Только в этот раз есть вариант автоматизировать это дело, привлекая рефералов. Вы можете заработать если »

Группа: Black Sabbath - другие аккорды (243),   о группе (21 статей),   диски (20),   фотографии (152)
Табулатура песни: Am I Going Insane (2)
Просмотров: 984
Прислал: Sabbath (sabbath54@mail.ru)




    
from- Michael James 
Am I Going Insane
Black Sabbath - Sabotage (1975)
Tune down 1 1/2 steps (C#)

|---------------------|----------------------|---------------------
|---------------------|----------------------|---------------------
|--4---6---7^^6--4--|---2---4---6^^4---2--|---------------------
|---------------------|----------------------|---------------------
|---------------------|----------------------|---------------------
|---------------------|----------------------|---------------------

|--------------------------------
|--------------------------------
|--1----------2^^----1---2-------
|--------------------------------
|--------------------------------
|--------------------------------
|
|--------------------------------
|--------------------------------
|--------------------------------
|--2----------4^^---2---0--------
|--------------------------------
|--------------------------------

everybody's...
|--------------------------------------------------------------
|--------------------------------------------------------------
|--1------------2---------------4^^---2------------------------
|--2----------2-3---------------5^^---3------------------------
|--------------------------------------------------------------
|--------------------------------------------------------------
feeling paraniod...
|--------------------------------------------------------------
|--------------------------------------------------------------
|--1------------2---------------------2------------------------
|--2------------0---------------------0------------------------
|-------------2------------------------------------------------
|--------------------------------------------------------------

Tell me people, am I going insane?
C C C C C C C C D D D D D D A A A 

|--------------------------------------------------------------
|--------------------------------------------------------------

Продолжаем грести бабос на ботах в Telegram.
Только в этот раз есть вариант автоматизировать это дело, привлекая рефералов. Вы можете заработать если »

|--1----------------2---4p2h4p2+2p1----2----------------------- |--2----------------4---6p4h6p4+4p2---------------------------- |--------------------------------------4^---------------------- |-------------------------------------------------------------- |-------------------------------------------------------------- |--2----------------------------------------------------------- |--1h2p1--4-------2-------1------------------1h2p2--2------4--- |---------4-------2-------2---------------4---------4------2--- |-------------------------------------------------------------- |-------------------------------------------------------------- |-------------------------------------------------------------- |-----------------------2-------------------------------------- |--1^-^-^---------------4-----4|2---1|1---1-------------------- |-----------------------------------------2-------------------- |--4^-^-^------------------------------------------------------ |-------------------------------------------------------------- |-------------------------------------------------------------- |------------------/5--------3----------------3h6----3-----2--- |-1-----2-----4|1---4--------2----------------2h4----2-----1--- |-2-----4------------------------------------------------------ |-------------------------------------------------------------- |-------------------------------------------------------------- |-------------------------------------------------------------- |------------------------------------3^------3----------------- |--/1--------------1----2----4|1-----2^------2----------------- |--/2--------------2----4-------------------------------------- |-------------------------------------------------------------- |-------------------------------------------------------------- |--------------------------------------------------------------------------- |-----7--8--7--8-----7--8--/12--10h12p10-8-10-8h10p8-7--8--7-----7---------- |--9--------------9-------------------------------------------9-----7----9-- |----------------------------------------------------------------------7---- |--------------------------------------------------------------------------- |---------------------------------------------------------------------------

www.rdrop.com/~mjames/sabbath/
найти лекарство
список лекарств

Ремонт холодильников Hitachi (Хитачи)

Услуги бытового ремонта

remont-holodilnikov24.ru








О сайтеАккордыХит-парадПоискУроки ФорумыИщу песню
ПрограммыСвежачок-сПодпискаСтатьи
Яндекс.Метрика