Табулатура Black Sabbath | The Thrill Of It All гитара табулатуры уроки тексты песен Black Sabbath текст lyrics песня аккорды песни ноты нота электрогитара струна  
   А Б В Г Д Е Ж З И К Л М Н О П Р С Т У Ф Х Ч Ш Ы Э Ю Я       Разные песни
1-9 A B C D E F G H I J K L M N O P Q R S T U V W Y Z      Все исполнители in english

    



группа Black Sabbath, Табулатура песни The Thrill Of It All

Работа в Европе для граждан РФ, Украины, СНГ

  • минимальная зарплата $500.
  • виза и контракт на полгода, возможно продление
  • проживание оплачивает работодатель
  • нужен только загранпаспорт
  • оформление 190 €
  • данное предложение - отличная возможность эмигрировать в Европу и закрепиться здесь навсегда.

  • Мы свяжемся с Вами по WhatsApp или Viber и ответим на любые вопросы.
    на нашем сайте можно почитать подробнее »

    Группа: Black Sabbath - другие аккорды (243),   о группе (21 статей),   диски (20),   фотографии (152)
    Табулатура песни: The Thrill Of It All
    Просмотров: 1105
    Прислал: Sabbath (sabbath54@mail.ru)




        
    
    from- Michael James 
    The Thrill Of It All
    Black Sabbath - Sabotage (1975)
    Tune down 1 1/2 steps (C#)
    |----------------------------------------------------------
    |----------------------------------------------------------
    |--------------5--5/7-------------------5----9-------5-----
    |--------------5--5/7-------------------5----9-------5-----
    |--0-5h7-0-------------------0-5h7-0-----------------------
    |----------------------------------------------------------
    
    w/ solo
    |----------------------------------------------------------
    |----------------------------------------------------------
    |-----------------------7----------------------------------
    |--5--4--5--7--9---5h7--7----------------------------------
    |--3--2--3--5--7--------5----------------------------------
    |----------------------------------------------------------
    
    |----------------------------------------------------------
    |----------------------------------------------------------
    |----5-5-5-5-5----------------5-5-5-5-5-----------87--87-
    |--0h3-3-3-3-3---5---7------0h3-3-3-3-3---5---7---65--65-
    |----------------3---5--------------------3---5------------
    |----------------------------------------------------------
    
    |----------------------------------------------------------
    |----------------------------------------------------------
    |----------------------------------------------------------
    |---5------3-5-7--3------------5----3-5-7--3---------------
    |--------------------5-----3-5----------------5------------
    |----------------------------------------------------------
    |----------------------------------------------------------
    |----------------------------------------------------------
    |----------------------------------------------------------
    |-------3-------5--3---/7----5----3----2-------------------
    |-3--5-----------------------------------------------------
    |----------------------------------------------------------
    
    |----------------------------------------------------------
    |----------------------------10-10-10--8-------------------
    |---7-------5-------7--------10-10-10--9-------------------
    |---7-------5-------7--------10-10-10--9-------------------
    |---5-------3-------5--------------------------------------
    |----------------------------------------------------------
    
    |--------------------------------------------------------------------
    |--------------------------------------------------------------------
    |--------------------------------------------------------------------
    
    Узнай ВСЕ о своем друге в ВК или FB
    |-----------4-5----7/9-7--4---------------------4-5---7/9-7--4------- |---5-5-5-7------------------7--5-------5-5-5-7-----------------7--5- |-------------------------------------------------------------------- |---------------------------------------------------------- |---------------------8-10^-^10---------------------------- |--7--------------5/7-----------7-------------------------- |-------7-9-10-------------------------10p9p7-------------- |---------------------------------------------------------- |---------------------------------------------------------- |-------------------------10---------------------------------------------- |13^^13-10--------------10--13p10----------------------------------------- |----------12^^12-10-12^---------12^^12p10-12p10--------------------10---- |-----------------------------------------------12-10-------------10--12-- |----------------------------------------------------1210-8-10/12-------- |------------------------------------------------------------------------- |----18^-18^-18^-18^-^18p----------------------------------------- |-15--------------------^13p10------------------------------------ |------------------------------^12p10----------10-12^^-10~~~------ |-------------------------------------12----12-------------------- |----------------------------------------------------------------- |----------------------------------------------------------------- Solo: |---------------------------|----------------------------------- |-7-8-10---8-10-8p7-8p7-----|-7-8-10-10/12-----12-10-8-10-7h8--- |-----------------------7---|---------------------------------7- |---------------------------|----------------------------------- |---------------------------|----------------------------------- |---------------------------|----------------------------------- |---------------------------------------------------------- |-7h8-10-7h8-10-7h8-10-7h8-10-7-8-7h8p7-------------------- |---------------------------------------9-7---------------- |---------------------------------------------------------- |---------------------------------------------------------- |---------------------------------------------------------- |----------------------------10^-10^-10^-10^-10^-10^-^10--8-h10--- |-7h8-10-7h8-10-7h8-10-/12---------------------------------------- |----------------------------------------------------------------- |----------------------------------------------------------------- |----------------------------------------------------------------- |-----------------------------------------------------------------

    www.rdrop.com/~mjames/sabbath/
    лекарство в аптеке
    список лекарств






    О сайтеАккордыХит-парадПоискУроки ФорумыИщу песню
    ПрограммыСвежачок-сПодпискаСтатьи
    Яндекс.Метрика