Табулатура Black Sabbath | Megalomania гитара табулатуры уроки тексты песен Black Sabbath текст lyrics песня аккорды песни ноты нота электрогитара струна  
   А Б В Г Д Е Ж З И К Л М Н О П Р С Т У Ф Х Ч Ш Ы Э Ю Я       Разные песни
1-9 A B C D E F G H I J K L M N O P Q R S T U V W Y Z      Все исполнители in english

    



группа Black Sabbath, Табулатура песни Megalomania

Работа в Европе для граждан РФ, Украины, СНГ

  • минимальная зарплата $500.
  • виза и контракт на полгода, возможно продление
  • проживание оплачивает работодатель
  • нужен только загранпаспорт
  • оформление 190 €
  • данное предложение - отличная возможность эмигрировать в Европу и закрепиться здесь навсегда.

  • Мы свяжемся с Вами по WhatsApp или Viber и ответим на любые вопросы.
    на нашем сайте можно почитать подробнее »

    Группа: Black Sabbath - другие аккорды (243),   о группе (21 статей),   диски (20),   фотографии (152)
    Табулатура песни: Megalomania
    Просмотров: 1136
    Прислал: Sabbath (sabbath54@mail.ru)




        
    from- Michael James 
    Megaomania
    Black Sabbath - Sabatoge (1975)
    Tune down 1 1/2 steps (C#)
    
    thsi is underneath everthing else:
    |----------5-5-------------------5-5-----------------------
    |--------5----6----------------5----6----------------------
    |------5-------5-------------5-------5---------------------
    |----7----------7----------7----------7--------------------
    |-0---------(strum)-----0--------(strum)-------------------
    |----------------------------------------------------------
    Fills:
    |-------|-----------------------|--------------------------|
    |-------|-----------------------|--------------------------|
    |-------|------5-7-5-(7)-7/9----|-------9p7-75------------|
    |-/7----|-----------------------|---------------9h10-7-----|
    |-------|-----------------------|--------------------------|
    |-------|-----------------------|--------------------------|
    |--------------------|-------------------------------------|
    |--------------------|-------------------------------------|
    |-/9-7---------------|-------------------------------------|
    |------10p9-7--------|---------------10p9-10p9-------------|
    |--------------------|---------10h12-----------12----------|
    |--------------------|-------------------------------------|
    
    |--17------17---------------17-----17----------------------|
    |--20^-----20^--------------20^----20^---------------------|
    |----------------------------------------------------------|
    |----------------------------------------------------------|
    |----------------------------------------------------------|
    |----------------------------------------------------------|
    |                                                          |
    |----------------------------------------------------------|
    |----------------------------------------------------------|
    |--2--2----3----3-3535353---2-2-----3----3-3535353---------|
    |--2--2--2-3----3-----------2-2--2--3----3-----------------|
    |--0--0--2-1----1-----------0-0--2--1----1-----------------|
    |--------0-----------------------0-------------------------|
    |--------------------------|----------------------------------
    |--------------------------|----------------------------------
    |-7------5-5/7------5-5/7--|---5-7/9------7-7/9---------------
    |-7------5-5/7------5-5/7--|---5-7/9------7-7/9---------------
    |-5------3-3/5------3-3/5--|---3-5/7------5-5/7---------------
    |--------------------------|----------------------------------
    |
    |---------------------
    |---------------------
    |-5~~/7~~~------------
    |---------------------
    |---------------------
    |---------------------
    Fills: 2nd Verse:
    
    Узнай ВСЕ о своем друге в ВК или FB
    |------------|-----------------------|---------------------| |------------|-----8-10-8-(8)h10-----|---------------------| |---5-7/9----|-----------------------|---------------------| |-7----------|-----------------------|-10p9----------------| |------------|-----------------------|------12-10/12-------| |------------|-----------------------|---------------------| |---------------|----------------|-------------------------| |-8--/(12)------|----------------|-------------------------| |----------7/9--|----------------|-------------------------| |---------------|-10h12-10p9-----|-9h10-9h10---------------| |---------------|------------12--|-----------12------------| |---------------|----------------|-------------------------| Bridge: |----------------------------------------------2 x |---------------------------------------------- |-5-5-5-5-5----------------------------------5- |-5-5-5-5-5-3----3-3-------------------------5- |-3-3-3-3-3-3----3-3-------1---1----1----1/5-3- |-----------1----1-1-1-2-3---3----3----3------- |--------------------------------------------------------------------| |--------------------------------------------------------------------| |------2-----4-----4/5-5-5-----------5-----4---0h2-------------------| |------2-----4-----4/5-5-5-----------5-----4---0h2---------0h2p0h2---| |--0-0---0-0---0-0---------0-0-0-0-0---0-0---0-----0--0--0---------0-| |--------------------------------------------------------------------| | | |--------------------------------------------------------------------| |--------------------------------------------------------------------| |------2-----4-----4/5-5-5-----------5-----4---0h2-------------------| |------2-----4-----4/5-5-5-----------5-----4---0h2---------0h2p0h2---| |--0-0---0-0---0-0---------------------0-0---0---------------------0-| |--------------------------------------------------------------------| | |--------------------- |--------------------- |--------------------- |--------------------- |--------------------- |--(3)-5--3-/-5~~~~~-- |------------------------------------------------------------- |------------------------------------------------------------- |--7--7-5-4-2-----7--7-5-4-2-----7--7-5-4-2-----5---2--------- |--7--7-5-4-2-----7--7-5-4-2-----7--7-5-4-2-----5---2--------- |-------------0-0------------0-0------------0-0-----0--------- |-------------------------------------------------------------

    www.rdrop.com/~mjames/sabbath/
    найти лекарство
    список лекарств






    О сайтеАккордыХит-парадПоискУроки ФорумыИщу песню
    ПрограммыСвежачок-сПодпискаСтатьи
    Яндекс.Метрика