Табулатура Black Sabbath | Symptom Of The Universe гитара табулатуры уроки тексты песен Black Sabbath текст lyrics песня аккорды песни ноты нота электрогитара струна  
   А Б В Г Д Е Ж З И К Л М Н О П Р С Т У Ф Х Ч Ш Ы Э Ю Я       Разные песни
1-9 A B C D E F G H I J K L M N O P Q R S T U V W Y Z      Все исполнители in english

    



группа Black Sabbath, Табулатура песни Symptom Of The Universe

Продолжаем грести бабос на ботах в Telegram.
Только в этот раз есть вариант автоматизировать это дело, привлекая рефералов. Вы можете заработать если »

Группа: Black Sabbath - другие аккорды (243),   о группе (21 статей),   диски (20),   фотографии (152)
Табулатура песни: Symptom Of The Universe
Просмотров: 1307
Прислал: Sabbath (sabbath54@mail.ru)




    
#----------------------------------PLEASE NOTE---------------------------------#
#This file is the author's own work and represents their interpretation of the #
#song. You may only use this file for private study, scholarship, or research. #
#------------------------------------------------------------------------------#
from - Michael James mjames@agora.rdrop.com
Symptom Of The Universe
Black Sabbath - Sabotage (1975)
Tune down 1 1/2 steps (C#)
This is the version that Iommi sometimes plays live,
to view the album version click here 
To clear up any confusion, this song is played in the E position, 
but the guitar is tuned down 1/2 step, so the song is based in F#
|----------------------------------------------------------
|----------------------------------------------------------
|----------------------------------4-----------------------
|---------------3------------------2-3---------------------
|---------------1--------------------1---------------------
|-0-0-0-0-0-0-0------0-0-0-0-0-0-0-------------------------
|----------------------------------------------------------
|----------------------------------------------------------
|----------------------------------------------------------
|--7-------------------------------------------------------
|--5---------8-----------7---------------------------------
|------------6-----------5---------------------------------
|----------------------------------------------------------------
|----------------------------------------------------------------
|----------------------------------------------------------------
|---4-5-2-4---2-----2---------------4-5-2-4---2-----2------------
|-----------5---4-5---5-4-2-----------------5---4-5---5-4-2------
|-2-------------------------5-----2-------------------------5----
|--------------------------------------------------------------
|--------------------------------------------------------------
|--------------------------------------------------------------
|---------------------------1h2p1---2h4-4h5p4------------------
|-2--2-2-2-2-2--2-2-2-2-2h4-------2-----------5-2--2-2-2-2-2---
|--------------------------------------------------------------
|--------------------------------------------------------------
|--------------------------------------------------------------
|--4-----------------------------------------------------------
|--4--slowly move hand up fretboard, imitating a slideing sound
|--2-----------------------------------------------------------
|--------------------------------------------------------------
|---------------------------------------------------------------------------

Продолжаем грести бабос на ботах в Telegram.
Только в этот раз есть вариант автоматизировать это дело, привлекая рефералов. Вы можете заработать если »

|-----------2-------5-------4-------4-------------2-------5-------4-------4- |-------------2---------------4---------------------2---------------4------- |-------4-------4-------4-------4-------------4-------4-------4-------4----- |--------------------------------------------------------------------------- |-1/2-----------------------------------1/2--------------------------------- |--4---4--------------------------------------------- |----7----5-7-5-4-5---4-5-2-------------------------- |-------------------6-------4---2-1---2---1---------- |---------------------------------------------4------ |---------------------------------------------------- |---------------------------------------------------- |----5---4-------5---4----------5---4------2-------------- |----------7-----------7--------------7--2---5-4-2-------- |--6---6-------6---6----------6---6----------------4p2---- |------------------------------------------------------4-- |--------------------------------------------------------- |--------------------------------------------------------- |---------------------------------------------------- |---------------------------------------------------- |--1h2p1---1---------1-2---1-2---1-2-1---1----------- |--------4---2-4---4-----4-----4-------4---4-2------- |----------------------------------------------4----- |---------------------------------------------------- |---------------------------------------------------------------------- |---------------------------------------------------------------------- |------------1------------------------------------1--------/6-4-2-1---- |------1h2-4---4---2-1-2-4-2-4-4------------1h2-4---4--2-4----------4-- |--4------------------------------------4------------------------------ |---------------------------------------------------------------------- |------4-----4-5-454---4--------------------------- |----7---5-7---------7-----7-454------------------- |--6---------------------6-------6----------------- |-------------------------------------------------- |-------------------------------------------------- |--------------------------------------------------

www.rdrop.com/~mjames/sabbath/
искать в аптеке
список лекарств






О сайтеАккордыХит-парадПоискУроки ФорумыИщу песню
ПрограммыСвежачок-сПодпискаСтатьи
Яндекс.Метрика