Табулатура Black Sabbath | Don`t Start (too Late)  Instrumental гитара табулатуры уроки тексты песен Black Sabbath текст lyrics песня аккорды песни ноты нота электрогитара струна  
   А Б В Г Д Е Ж З И К Л М Н О П Р С Т У Ф Х Ч Ш Ы Э Ю Я       Разные песни
1-9 A B C D E F G H I J K L M N O P Q R S T U V W Y Z      Все исполнители in english

    



группа Black Sabbath, Табулатура песни Don`t Start (too Late) Instrumental

Продолжаем грести бабос на ботах в Telegram.
Только в этот раз есть вариант автоматизировать это дело, привлекая рефералов. Вы можете заработать если »

Группа: Black Sabbath - другие аккорды (243),   о группе (21 статей),   диски (20),   фотографии (152)
Табулатура песни: Don`t Start (too Late) Instrumental
Просмотров: 1114
Прислал: Sabbath (sabbath54@mail.ru)




    

from- Michael James 
Don't Start (Too Late)
Black Sabbath - Sabotage (1975)
Tune down 1 1/2 steps (C#)
(I)
|----------------------------------------------------------
|----------------------------------------------------------
|----------------------------------------------------------
|----------------------------------------------------------
|-----3-----3-----3-----3-----3-----3-----3-----3----------
|-1-1---1-1---1-1---1-1---1-1---1-1---1-1---1-1------------
(I)
|----------------------------------------------------------
|----------------------------------------------------------
|-------1---1-3-1---------------1---1-3-1---1-3---1--------
|-1-3-4---4-------4-3-1-3-1-3-4---4-------4-----4---/4-----
|----------------------------------------------------------
|----------------------------------------------------------
|(II)
|---------------------------------------------------------------------
|-------9-11-9----11-9----9-------------9-11-9----11-9----9-----------
|-10-11--------11------11---10-11-10-11--------11------11---11-10-/11-
|---------------------------------------------------------------------
|---------------------------------------------------------------------
|---------------------------------------------------------------------
(I)
|----------------------------------------------------------
|----------------------------------------------------------
|----------------------------------------------------------
|---4-4---4-4---4-4---4-4---4-4---4-4---4-4---4-4---4-4----
|-2-----2-----2-----2-----2-----2-----2-----2-----2--------
|----------------------------------------------------------
(II)
|------------------9-9-9-9/11----
|----9-11-12-11-12---------------
|-11-----------------------------
|--------------------------------
|--------------------------------

Продолжаем грести бабос на ботах в Telegram.
Только в этот раз есть вариант автоматизировать это дело, привлекая рефералов. Вы можете заработать если »

|-------------------------------- (II) |--------------------------------------- |----9-11-12---11--------9-11-12---11--- |-10------------------10---------------- |--------------------------------------- |--------------------------------------- |--------------------------------------- (II)1st time |------------------------------ |------------------------------ |-4-3-1-3-1--1----------------- |--------------4-3-4--1-3------ |------------------------------ |------------------------------ (II) |---------------------------------------9-9/11----11-11---11-11- |-11----12--11h12p11------12-11-9-11-12------------------------- |--------------------------------------------------------------- |--------------------------------------------------------------- |--------------------------------------------------------------- |--------------------------------------------------------------- (II) |-------------------------------------- |-11-12p11-9-11-12p11-9-11-12p11-9-11-- |-------------------------------------- |-------------------------------------- |-------------------------------------- |-------------------------------------- |(I) |-------------------------------- |-------------------------------- |-------------------------------- |-8-9-9----8-9-9----8-9-9----8--- |-------11-------11-------11----- |--------------------------------

www.rdrop.com/~mjames/sabbath/
поиск лекарств
список лекарств






О сайтеАккордыХит-парадПоискУроки ФорумыИщу песню
ПрограммыСвежачок-сПодпискаСтатьи
Яндекс.Метрика