Табулатура Black Sabbath | Under The Sun / Every Day Comes And Goes гитара табулатуры уроки тексты песен Black Sabbath текст lyrics песня аккорды песни ноты нота электрогитара струна  
   А Б В Г Д Е Ж З И К Л М Н О П Р С Т У Ф Х Ч Ш Ы Э Ю Я       Разные песни
1-9 A B C D E F G H I J K L M N O P Q R S T U V W Y Z      Все исполнители in english

    



группа Black Sabbath, Табулатура песни Under The Sun / Every Day Comes And Goes

Продолжаем грести бабос на ботах в Telegram.
Только в этот раз есть вариант автоматизировать это дело, привлекая рефералов. Вы можете заработать если »

Группа: Black Sabbath - другие аккорды (243),   о группе (21 статей),   диски (20),   фотографии (152)
Табулатура песни: Under The Sun / Every Day Comes And Goes
Просмотров: 1767
Прислал: Sabbath (sabbath54@mail.ru)




    
from - Michael James 
Under The Sun/Everyday comes and goes
Black Sabbath - Volume 4 (1972)
Tune down 1 1/2 steps

|-------------------------------------------|3 x
|-------------------------------------------|
|-------------------------------------------|
|-------------------------------------------|
|-2----2--2---9---8----12---11-------10--9--|
|-0----0--0---7---6----10---9--------8---7--|

|------------------------------------------------------------|
|------------------------------------------------------------|
|------------------------------------------------------------|
|------------------------------------------------------------|
|--------9p7--9-10p9p7--9p7---------9p7--9-10p9p7--9p7-------|
|--0--0-----------------------0--0---------------------------|
				   r		   r
|----------------------------------------------6-------------------|
|-------------------------------6-7^5---7-7------11^10----11-11/12-|
|-----------------4^---6---6-6^-------7-----9^---------10----------|
|-----4-5---4-5-7----7---------------------------------------------|
|-5-7-----7--------------------------------------------------------|
|------------------------------------------------------------------|

everyday just comes and goes, life is one long overdose...
A5                      G5    A5                     G5
people hiding their real faces, each one running their rat races...                   
B5                      A5    B5                     A5
and so on....(during solo)
C#5                     B5    C#5                    B5
and so on....(during solo)
D5                      C5    D5                     C5

solo:  
|-------------------------------------------9-----------------
|---------------------------------------12^---12--------------
|---------------------------9----9-9^-9-----------------------
|---------9h11-9----9-10-11---11------------------------------
|-9-10h11--------11-------------------------------------------
|-------------------------------------------------------------
|------------------------------------------------------------------------
|-9----------------------------------------------------------------------
|---12-11p9-11p9----9-11-9----9-----------9----9-9-11^9----11-11-9----9--
|----------------11--------11---11-9--/11---11----------11---------11----
|------------------------------------------------------------------------

Продолжаем грести бабос на ботах в Telegram.
Только в этот раз есть вариант автоматизировать это дело, привлекая рефералов. Вы можете заработать если »

|------------------------------------------------------------------------ |---------------------------------------10-------------------- |---r-------------------------------13^----13-9--------------- |-10^9----9---------------10-10h11--------------131210-------- |------11---11---11////12------------------------------12p10-- |------------------------------------------------------------- |------------------------------------------------------------- |------------------------------------------------------------ |------------------------------------------------------------ |---10-12-10--10----------10----10-12^-12^-12p10--10-12-10--- |-12--------12--12-10-/12----12-----------------12--------12- |------------------------------------------------------------ |------------------------------------------------------------ |------------------------------------------------------------ |------------------------------------------------------------ |-10-----------10--10-12^-12--12p10--10-12-10--10------------ |---12p10-10h12--12----------------12--------12--12-10--10--- |-----------------------------------------------------12----- |------------------------------------------------------------ |------------------------------------------ |-10--10---13--13--------------repeat-3-x-- |-12^-12^--15^-15^x(5)/x(12)-------------- |------------------------------------------ |------------------------------------------ |------------------------------------------ 2nd half: |-------------------------------------------------------------------------------- |-------------------------------------------------------------------------------- |------------9-9-9-9------------7-7-7-7------------------------------------------ |-9----------9-9-9-9-9----------7-7-7-7-9----------10-10-10-10-12--10-9-9-9-9---- |---10-9h10--7-7-7-7---10-9h10--5-5-5-5---10-9h10--10-10-10-10-12--10-9-9-9-9---- |--------------------------------------------------8--8--8--8--10--8--7-7-7-7---- repeat riff below, slowing every time you play it. |-------------------------------------------------||------------ |-------------------------------------------------||-last time-- |--9-9-9-9----7-7-7-7-----------------------------||------------ |--9-9-9-9----7-7-7-7----10-10-10-10--------------||-----2------ |--7-7-7-7----5-5-5-5----10-10-10-10--5/7-5-------||-----2------ |------------------------8--8--8--8---------75-3-||-----0------

www.rdrop.com/~mjames/sabbath/
лекарство в аптеке
список лекарств






О сайтеАккордыХит-парадПоискУроки ФорумыИщу песню
ПрограммыСвежачок-сПодпискаСтатьи
Яндекс.Метрика