Табулатура Black Sabbath | Cornucopia гитара табулатуры уроки тексты песен Black Sabbath текст lyrics песня аккорды песни ноты нота электрогитара струна  
   А Б В Г Д Е Ж З И К Л М Н О П Р С Т У Ф Х Ч Ш Ы Э Ю Я       Разные песни
1-9 A B C D E F G H I J K L M N O P Q R S T U V W Y Z      Все исполнители in english

    



группа Black Sabbath, Табулатура песни Cornucopia

Продолжаем грести бабос на ботах в Telegram.
Только в этот раз есть вариант автоматизировать это дело, привлекая рефералов. Вы можете заработать если »

Группа: Black Sabbath - другие аккорды (243),   о группе (21 статей),   диски (20),   фотографии (152)
Табулатура песни: Cornucopia
Просмотров: 1277
Прислал: Sabbath (sabbath54@mail.ru)




    
from- Michael James 
Cornucopia
Black Sabbath - Volume 4 (1972)
Tune down 1 1/2 steps
|---------------------------------|-------------------------------
|---------------------------------|-------------------------------
|---------------10------9-10------|--9-10-----9-10-----9-10-------
|-2--5--4--5--4-10------9-10-8-9--|--9-10-8-9-9-10-8-9-9-10-8-9---
|-2--5--4--5--4-/8------7--8-8-9--|--7--8-8-9-7--8-8-9-7--8-8-9---
|-0--3--2--3--2--------------6-7--|-------6-7------6-7------6-7---
(bass)
|----------------------------------------------------------------
|----------------------------------------------------------------
|----------------------------------------------------------------
|-0-0-0-12-12--0-0-0-12-12--0-0-0-10-10-10-10--------------------
|
|----------------------------------------------------------------
|----------------------------------------------------------------
|----------------------------------------------------------------
|---------------------------------12-12-12-12--------------------
|---------------------------------12-12-12-12--------------------
|---------------------------------10-10-10-10--------------------

|--------------------------------------------------------------------
|--------------------------------------------------------------------
|---------------9-9-----------9-9----------9-9----------9-9----------
|-12--11-12-11--9-9-----------9-9----------9-9----------9-9----------

Продолжаем грести бабос на ботах в Telegram.
Только в этот раз есть вариант автоматизировать это дело, привлекая рефералов. Вы можете заработать если »

|-12--11-12-11--7-7--10-9-7---7-7--10-9-5--7-7--10-9-7--7-7--10-9-5-- |-10---9-10--9------------------------------------------------------- |--------------------------- |--------------------------- |--------------------------- |-12--7--7-7/10-10-10-10--- |-12--7--7-7/10-10-10-10--- |-10--5--5-5/8---8--8--8--- |-------0-----------0-----------2-----/5-5-5-------- |---------1-----------1-------3---3---/6-6-6-------- |-----2-----2-----0-----0---2-------2-/5-5-5-------- |---2-----------2---------0------------------------- |-0------------------------------------------------- |-------------3------------------------------------- |------------------------------------|---------------------------- |------------------------------------|---------------------------- |------------------------------------|--------------7^7-5--------- |--------------------------------2-2-|-7-7-7-7-5-5---------------- |----0--0-0----0--0----0--0-0--------|-7-7-7-7-5-5---------------- |-3^--------3^------3^--------3^-----|-5-5-5-5-3-3----------------

www.rdrop.com/~mjames/sabbath/
найти лекарство
список лекарств






О сайтеАккордыХит-парадПоискУроки ФорумыИщу песню
ПрограммыСвежачок-сПодпискаСтатьи
Яндекс.Метрика