Табулатура Black Sabbath | Snowblind  (2) гитара табулатуры уроки тексты песен Black Sabbath текст lyrics песня аккорды песни ноты нота электрогитара струна  
   А Б В Г Д Е Ж З И К Л М Н О П Р С Т У Ф Х Ч Ш Ы Э Ю Я       Разные песни
1-9 A B C D E F G H I J K L M N O P Q R S T U V W Y Z      Все исполнители in english

    



группа Black Sabbath, Табулатура песни Snowblind (2)

Работа в Европе для граждан РФ, Украины, СНГ

  • минимальная зарплата $500.
  • виза и контракт на полгода, возможно продление
  • проживание оплачивает работодатель
  • нужен только загранпаспорт
  • оформление 190 €
  • данное предложение - отличная возможность эмигрировать в Европу и закрепиться здесь навсегда.

  • Мы свяжемся с Вами по WhatsApp или Viber и ответим на любые вопросы.
    на нашем сайте можно почитать подробнее »

    Группа: Black Sabbath - другие аккорды (243),   о группе (21 статей),   диски (20),   фотографии (152)
    Табулатура песни: Snowblind (2)
    Просмотров: 1588
    Прислал: Sabbath (sabbath54@mail.ru)




        
    from- Michael James 
    Snowblind
    Black Sabbath - Volume 4 (1972)
    Tune down 1 1/2 steps
    
    fig A
    --------------------------------0--------------2--2------------
    ------------------------------1---1----------3------3----------
    ----------------------------0-------0------2----------2--------
    --9-11--12---7---9--------2-----------0--0--------------0------
    --7--9--10---5---7---0--3---------------------------------------
    ----------------------------------------------------------------
    fig B
    ------------------------------------
    ------------------------------------
    ------------------------------------
    --9--9-----9------7--7-------5------
    --7--7--0--7---0--5--5---5/7--------
    ------------------------------------
    fig C
    -------------------------------------0------
    ----------------------------1------3--------
    --------------------------0------2----------
    ------------------------2------0------------
    --5h7-5-4-----------0-3---------------------
    ----------5--6-----------------------------
    Fig D
    ----------0-----------------------------------0------------------0------=
    --------0---0-------------0-------0---------0---0--------------0---0----=
    ------0-------0---------0-------0---------0-------0----------0-------0--=
    ----9-----------9-----7-------4---------5-----------5------4------------=
    --7-----------------5-------4---------3------------------2--------------=
    ------------------------------------------------------------------------=
    
    Solo:
    ----------------------------12------------------------------------
    --12--15--15b-15b-15b-15b-------15---12---------------------------
    ------------------------------------------15--14--12--------------
    ------------------------------------------------------7--5-------
    ------------------------------------------------------------------
    ------------------------------------------------------------------
    ------------------------------------------------------------------
    ------------------------------------------------------------------
    ---------------------------------------------5--------------------
    -------5--7--7b-7b-7b--7--5--7----------5------7---------5--7-----
    --5h7---------------------------7--5h7-----7-------5h7------------
    ------------------------------------------------------------------
    
    ------------------------------------------------------------------
    ------------------------------------------------------------------
    ------------------------------------------------------------------
    --7b-7b--7--5--7b--7--5h7-----------5------5---------5--7---------
    ---------------------------7--5h7------7------7--5h7--------------
    ------------------------------------------------------------------
    ---------------------------------------------------------15b--15b--
    ------------15b--15b--15b--15b--12---------------------------------
    -------------------------------------15--12------------------------
    --7b--7--5-----------------------------------15--14--12------------
    -------------------------------------------------------------------
    -------------------------------------------------------------------
    --12-------12------------------------------------------
    ------15b------15--12----------------------------------
    ------------------------15--14--12---------------------
    -------------------------------------14---------------
    -------------------------------------------------------
    -------------------------------------------------------
    fig E
    -----------------------------------------------------------
    -----------------------------------------------------------
    -----------------------------------------------------------
    -----------------------------------------------------------
    ---------10--10----------10--10----------10--10--12-12-12--
    --12--12---------12---12---------12---12---------10-10-10--
    
    Outro Solo:
    
    Узнай ВСЕ о своем друге в ВК или FB
    |-12--12--12-----12---12-----12----12151215--12151215-12--12--12--- |-15^-15^-15^^^-----------15^^^(15)-------------------15^-15^------ |------------------------------------------------------------------ |------------------------------------------------------------------ |------------------------------------------------------------------ |------------------------------------------------------------------ |-(12)---12-----12151215--121512------------------------------- |----15^^^^(15)-------------------12--12--12--12--12--12--12--- |---------------------------------14^-14^-14^-14^-14^-14^-14^-- |-------------------------------------------------------------- |-------------------------------------------------------------- |-------------------------------------------------------------- |-x----------------------------------------------------------- |------12--15--17--17-------17----17-----17-----------15--12--- |---14-14^-17^-19^-19^^^(20)19^---19^----19^--19^-19^-17^-14^-- |-------------------------------------------------------------- |-------------------------------------------------------------- |-------------------------------------------------------------- |-------------------------------------|-----------------12-|------------- |-------------------------------------|--------------------|-15--15^----- |-14-14--121412----14^--14-12---------|-1412----14^-14^----|------------- |---------------14------------14^(14)-|-----1412-----------|------------- |-------------------------------------|--------------------|------------- |-------------------------------------|--------------------|------------- |-12----------------|----12---12--------|------------------ |----15-12----------|----12---12-12--12-|------------------ |----------15-14-12-|-14^---14^--14^-14^|------------------ |-------------------|-------------------|------------------ |-------------------|-------------------|------------------ |-------------------|-------------------|------------------ |---------------------------|------------------------------ |----12-15----12^-15-----12-|-15-----12-15-----12-15------- |-14^------14--------14^----|----14^-------14^-------14^--- |---------------------------|------------------------------ |---------------------------|------------------------------and so on... |---------------------------|------------------------------ |--------------121412--------------------12---------------- |-121512151215--------151215121512151215----1512151215----- |---------------------------------------------------------- |---------------------------------------------------------- |---------------------------------------------------------- |---------------------------------------------------------- |-------------||-121512151215--------------121512---------- |-121512151215||--------------121512151215--------121512--- |-------------||------------------------------------------- |-------------||------------------------------------------- |-------------||-------------------------------------------and so on... |-------------||------------------------------------------- |-15-121512----12-12---12--|---12----12--|-12-12-12-12--15-15-15-- |-----------15---------15^-|---15^---15^-|-15^15^15^15^-18^18^18^- |--------------------------|-------------|------------------------ |--------------------------|-------------|------------------------ |--------------------------|-------------|------------------------ |--------------------------|-------------|------------------------ |----15-121512------------------------|-------------------- |-15^----------15-121412--------------|-----12-15-15^------ |------------------------14-121412----|-14^---------------- |----------------------------------14-|-------------------- |-------------------------------------|-------------------- |-------------------------------------|-------------------- |-12-------|------------------------------12--------------- |----15-12-|--12------15------12-----15---15^-------------- |----------|--14^-----17^-----14^----17^------------------- |----------|----------------------------------------------- |----------|----------------------------------------------- |----------|-----------------------------------------------

    www.rdrop.com/~mjames/sabbath/
    поиск лекарств
    список лекарств

    Бумажные стаканчики производство

    Бумажные и пластиковые стаканы для кофе. Низкие цены на ингредиенты

    posudateola.ru








    О сайтеАккордыХит-парадПоискУроки ФорумыИщу песню
    ПрограммыСвежачок-сПодпискаСтатьи
    Яндекс.Метрика