Табулатура Black Sabbath | Supernaut гитара табулатуры уроки тексты песен Black Sabbath текст lyrics песня аккорды песни ноты нота электрогитара струна  
   А Б В Г Д Е Ж З И К Л М Н О П Р С Т У Ф Х Ч Ш Ы Э Ю Я       Разные песни
1-9 A B C D E F G H I J K L M N O P Q R S T U V W Y Z      Все исполнители in english

    



группа Black Sabbath, Табулатура песни Supernaut

Продолжаем грести бабос на ботах в Telegram.
Только в этот раз есть вариант автоматизировать это дело, привлекая рефералов. Вы можете заработать если »

Группа: Black Sabbath - другие аккорды (243),   о группе (21 статей),   диски (20),   фотографии (152)
Табулатура песни: Supernaut
Просмотров: 1581
Прислал: Sabbath (sabbath54@mail.ru)




    
from- Michael James 
Supernaut
Black Sabbath - Volume 4 (1972)
Tune down 1 1/2 steps

|---------------------------------------------------------------------
|---------------------------------------------------------------------
|---------------------------------------------------------------------
|-----------------------------------------------------------5/7~~-----
|--5/7-7-7p5---5-7-7~~--5/7-7-7p5---5~~-----5/7-7-7p5---5-7-----------
|------------5--------------------5-------5-----------5---------------

|------------------||------------------------------------------
|------------------||--5---------------------------------------
|------------------||--7----------------------7----7---7----7--
|--75---7-7-75---||--6----------------------7----7-5-7----7--
|------5---------5-||--7---------------------------------------
|------------------||---------0-/-12-0-/12-0-------------------
						(slide up + down)(listen to song)	

Solo:								 trill:
|--12--12---121512--121512---121512-121512------12151215--
|--15^-15^--------12------12---------------1512-----------
|---------------------------------------------------------
|---------------------------------------------------------
|---------------------------------------------------------
|---------------------------------------------------------

|-17^---15-121512----12-12-12----------------------------------------
|-----------------15-------------17-12-15-121512------trill:---------
|-------------------------------9/---------------1412-14121412--------
|---------------------------------------------------------------------
|---------------------------------------------------------------------
|---------------------------------------------------------------------

|-----------------------------------------------------------------------------
|-----------------------------------------------------------------------------
|-14^-------12-14-14-1412---------------trill:--------------------------------
|--------14---------------14-1412------12141214-----1412----------------------

Продолжаем грести бабос на ботах в Telegram.
Только в этот раз есть вариант автоматизировать это дело, привлекая рефералов. Вы можете заработать если »

|---------------------------------14---------------------12-12p10---10121012-- |-----------------------------------------------------------------12---------- trills: |-----------------------------12----12---------------------15t12------------------ |--------------------------------15^--15^--^--15^--^^^^^^-------15t12------------- |-------12--121412-1412----14^---------------------------------------15t12-------- |-121412--14-----------14--------------------------------------------------15t12-- |--------------------------------------------------------------------------------- |--------------------------------------------------------------------------------- |-------------------------------------------------------------------------- |-------------------------------------------------------------------------- |----------14t12^^^^^^^^^^^^^^-------14^14^14^14^14^14^14^14^14^14^14^14^-- |-14t12-------------------------------------------------------------------- |-------------------------------------------------------------------------- |-------------------------------------------------------------------------- |------------------------------------------------||--------------12-------- |-15----12-15----12-15----12-15-----and so on...-||-----12-12-15^--1512---- |----14-------14-------14^------14^--------------||-14^----------------14-- |------------------------------------------------||------------------------ |------------------------------------------------||------------------------ |------------------------------------------------||------------------------ |----------------15^-15-1512----12-----12-12---------------------- |-------------12-------------15----15^-------15-12---------------- |-1412----14^--------------------------------------1512----------- |------14-----------------------------------------------14--14--- |----------------------------------------------------------------- |-----------------------------------------------------------------

www.rdrop.com/~mjames/sabbath/
поиск лекарств
список лекарств






О сайтеАккордыХит-парадПоискУроки ФорумыИщу песню
ПрограммыСвежачок-сПодпискаСтатьи
Яндекс.Метрика