Табулатура Black Sabbath | Changes гитара табулатуры уроки тексты песен Black Sabbath текст lyrics песня аккорды песни ноты нота электрогитара струна  
   А Б В Г Д Е Ж З И К Л М Н О П Р С Т У Ф Х Ч Ш Ы Э Ю Я       Разные песни
1-9 A B C D E F G H I J K L M N O P Q R S T U V W Y Z      Все исполнители in english

    



группа Black Sabbath, Табулатура песни Changes

Продолжаем грести бабос на ботах в Telegram.
Только в этот раз есть вариант автоматизировать это дело, привлекая рефералов. Вы можете заработать если »

Группа: Black Sabbath - другие аккорды (243),   о группе (21 статей),   диски (20),   фотографии (152)
Табулатура песни: Changes
Просмотров: 1881
Прислал: Sabbath (sabbath54@mail.ru)




    
from- Michael James 
Changes
Black Sabbath - Volume 4 (1972)
Tune down 1 1/2 steps
					*arranged for guitar*

E|--------5---------7--7----7--5--------------------------
B|------7-----------8--8----8--7--------------------------
G|----7-------------9--9----9--7--------------------------
D|---------------------0----------------------------------
A|--0-----------0-----------------------------------------
D|----------0---------------------------------------------

E|--------5---------0----0----------------------7--7---5----
B|------7-----------0----0------------0---------8--8---7----
G|----7-------------0----0----------0-----------9--9---7----
D|------------------2----2--------2-------------0-----------
A|--0-----------2---------------------------0---------------
D|----------2-------------------2-------0-------------------

	        im going...
E|--------5-------------3--------------------------------------0----------
B|------7------------3-----3--------------2-----------------0-----0-------
G|----7-----------4-----------4--------2--------2--------0----------------
D|-------------5--------------------4--------4--------2--------2----------
A|--0---------------------------------------------------------------------
D|----------5--------------------4-----------------2----------------------

Продолжаем грести бабос на ботах в Telegram.
Только в этот раз есть вариант автоматизировать это дело, привлекая рефералов. Вы можете заработать если »

E|--------------0--------------------------------------------- B|-----------0-----0-----------5--5-----------------3--------- G|--------0-----------------6--------6-----------4-----4------ D|-----2--------2--------7--------------7-----5-----------5--- A|--------2-----------------------7--------------------5------ D|--2-----------------7--------------------5------------------ E|--------------2---------------------------------------2----- B|-----------3-----3----3-------5--------5-----------3--3----- G|--------2-------------4-------------6-----------4-----4----- D|-----4----------------4----------7-----------4--------4----- A|--2-------------------2-------0-----------2-----------2----- D|------------------------------------------------------------ E|-----------2--------7--7--5---------------5--------7--7--5----- B|--------3-----------8--8--7------------7-----------8--8--7----- G|-----4--------------9--9--7---------7--------------9--9--7----- D|--4-----------------0------------------------------0----------- A|--2--------------0---------------0--------------0-------------- D|--------------0------------------------------0-----------------

www.rdrop.com/~mjames/sabbath/
искать в аптеке
список лекарств






О сайтеАккордыХит-парадПоискУроки ФорумыИщу песню
ПрограммыСвежачок-сПодпискаСтатьи
Яндекс.Метрика