Басовая табулатура Black Sabbath | Tomorrow`s Dream гитара табулатуры уроки тексты песен Black Sabbath текст lyrics песня аккорды песни ноты нота электрогитара струна  
   А Б В Г Д Е Ж З И К Л М Н О П Р С Т У Ф Х Ч Ш Ы Э Ю Я       Разные песни
1-9 A B C D E F G H I J K L M N O P Q R S T U V W Y Z      Все исполнители in english

    



группа Black Sabbath, Басовая табулатура песни Tomorrow`s Dream

Продолжаем грести бабос на ботах в Telegram.
Только в этот раз есть вариант автоматизировать это дело, привлекая рефералов. Вы можете заработать если »

Группа: Black Sabbath - другие аккорды (243),   о группе (21 статей),   диски (20),   фотографии (152)
Басовая табулатура песни: Tomorrow`s Dream
Просмотров: 917
Прислал: Sabbath (sabbath54@mail.ru)




    
From - KtuluKid@aol.com
Tomorrow's Dream - Bass
Black Sabbath - Volume 4 (1972)
Tune down 1 1/2 steps low to high (C# F# B E)
                                                                     Well
     ||------------------------------------------------------------||-----
     ||------------------------------------------------------------||-----
     ||-2/5--7-7-7-5-7-5-7---5-5--5-2/5--7-7-7--5-7-5-7---5-5--5-||-7-7-
     ||------------------------------------------------------------||-----
      I'll see you tomorrow at day break...        When sadness fills my 
     -------7h9-9-----7h9-9-----7h9-9-9--9-------||-----------------------
     ---7h9-------7h9-------7h9------------------||-----------7-----------
     -7-------------------------------------5----||-5-5---5-5---5-5---5-5-
     ------------------------------------------5-||-----5-----------5-----
     days...       SOLO:  This isn't the actual Geezer solo, but a groove 
     ------------||------------------------------------------------------7

Продолжаем грести бабос на ботах в Telegram.
Только в этот раз есть вариант автоматизировать это дело, привлекая рефералов. Вы можете заработать если »

------------||-----5-5--------5-5---5-5-------------5-5---5---5-7-9-- -5-5-5------||-5-7-----7--5-7-----7-----7-5-----5-7-----7---7-------- -------5----||------------------------------7-7---------------------- that works. This/ section is played at different times dur- -7-7-----------------||------------------------------||ing the song. -----9-7-5-----5-5---||------------------------------||The song's -----------5-7-----7-||-5---5---5--------5---5---5-||pretty simple, ---------------------||------------------------------||just piece it /=slide up h=hammer-on together. =slide down

www.rdrop.com/~mjames/sabbath/
поиск лекарств
список лекарств






О сайтеАккордыХит-парадПоискУроки ФорумыИщу песню
ПрограммыСвежачок-сПодпискаСтатьи
Яндекс.Метрика