Табулатура Black Sabbath | Wheels Of Confusion / The Straightener гитара табулатуры уроки тексты песен Black Sabbath текст lyrics песня аккорды песни ноты нота электрогитара струна  
   А Б В Г Д Е Ж З И К Л М Н О П Р С Т У Ф Х Ч Ш Ы Э Ю Я       Разные песни
1-9 A B C D E F G H I J K L M N O P Q R S T U V W Y Z      Все исполнители in english

    



группа Black Sabbath, Табулатура песни Wheels Of Confusion / The Straightener

Работа в Европе для граждан РФ, Украины, СНГ

  • минимальная зарплата $500.
  • виза и контракт на полгода, возможно продление
  • проживание оплачивает работодатель
  • нужен только загранпаспорт
  • оформление 190 €
  • данное предложение - отличная возможность эмигрировать в Европу и закрепиться здесь навсегда.

  • Мы свяжемся с Вами по WhatsApp или Viber и ответим на любые вопросы.
    на нашем сайте можно почитать подробнее »

    Группа: Black Sabbath - другие аккорды (243),   о группе (21 статей),   диски (20),   фотографии (152)
    Табулатура песни: Wheels Of Confusion / The Straightener
    Просмотров: 1078
    Прислал: Sabbath (sabbath54@mail.ru)




        
    from - Michael James 
    Wheels Of Confusion/The Straightener
    Black Sabbath - Volume 4 (1972)
    Tune down 1 1/2 steps
    |----------------------------------||==bend 1 step==||==bend 1 1/2==||
    |-----------------------------------------------------------|||----
    |-------------------/--12^-----10--12^12^12^12^12^12^12^^---<<<-----
    |--10^---8/10-10^-------------------------------------------------
    |------------------------------------------------------------------
    |------------------------------------------------------------------
    
    |------------------------------------------------------------------
    |------------------------------------------------------------------
    |-7--7-7--7-7-7--7---------7--7-7--7-7-7--7---------7--------------
    |-7--7-7--7-7-7--7---------7--7-7--7-7-7--7---------7--------------
    |-5--5-5--5-5-5--5-----3p0-5--5-5--5-5-5--5-----3p0-5--------------
    |------------------3h5----------------------3h5--------------------
    
    |-----------------------------------------------------------------------
    |-----------------------------------------------------------------------
    |-----------------------------------------7--7-7--7-7-7--7--------------
    |---------------------5-------------------7--7-7--7-7-7--7--------------
    |-----3p0-5-----7-------7---7-------------5--5-5--5-5-5--5--------------
    |-3h5-------8-5---8-5-----8---8-5-8-5-8-5-------------------------------
    
    |--------------------------------------
    |--------------------------------------
    |--------------------------------------
    |----10-----9------------10-----9------
    |--10-----9------------10-----9--------
    |-8-----7-----6-------8-----7-----6----
    
    |------------------------------------------------------------------
    |------------------------------------------------------------------
    |------------------------------------------------------------------
    |------------------------------------------------------------------
    |-------------------------3-------------------------------3--------
    |-5--5-3-5--5-3-5-3-5-3-5----5--3-5--5-3-5--5-3-5-3-5-3-5---5--3-5-
    
    |------------------------------||--------------------------------------------
    |------------------------------||--------------------------------------------
    |-7/9--9--97--7--7/9--9--9-9--||-14p12--------14p12-------14p12-------------
    |-5/7--7--75--5--5/7--7--7-7--||-------12h14-------12h14-------12h14--------
    |-5/7--7--75--5--5/7--7--7-7--||-------------------------------------12-----
    |------------------------------||--------------------------------------------
    
    |-----------------------------------------------
    |-----------------------------------------------
    |-----9--7--6------------------9--7--6--7p6-----
    |-----7--5--4------------------7--5--4--5p4-----
    |-----7--5--4------------------7--5--4--5p4-----
    |-3/5---------------------3/5-------------------
    
    |------------------------------------------------------------------
    |------------------------------------------------------------------
    |-----9--7--6--7p6--9-9/10----10--9--7-/9--------------------------
    |-----7--5--4--5p4--7-7/8------8--7--5-/7--------------------------
    |-----7--5--4--5p4--7-7/8------8--7--5-/7--------------------------
    |-3/5--------------------------------------------------------------
    
    |-----------------------------------
    |----------------------------------
    |-----5---8-7---7/87--7/87--5----
    |-7---5---8-7---7/87--7/87--5----
    |-7---3---6-5---5/65--5/65--3----
    |-5--------------------------------
    
    "lost in the wheels of confuision..."
    |------------------------------------------------------------------
    |-8^-8^-8^-8-------8~-----------10--10^--10-8-10-------------------
    |------------9-7-9-------------------------------------------------
    |------------------------------------------------------------------
    |------------------------------------------------------------------
    |------------------------------------------------------------------
    (2nd part)
    |------------------------------------------------------------------
    |------------------------------------------------------------------
    |------------------------------------------------------------------
    |-----8-----10----12----10----8-----7-----8-----10----8-----7------
    |--10----10----10----10----10-----8-----8-----8-----8-----8--------
    |------------------------------------------------------------------
    
    |------------------------------------------------------------------
    |------------------------------------------------------------------
    |-----------------3-------------------------------3----------------
    |-3-5--5-5-----3--3-3-5--5-5------5--3--3-3-----3-3-3--5--5-5------
    |-3-5--5-5-----3--1-3-5--5-5------5--3--3-3-----3-1-3--5--5-5------
    |-1-3--3-5-----1----1-3--3-3------3--1--1-1-----1---1--3--3-3------
    **2 guitars**
    |------------------------------------------------------------------
    
    Узнай ВСЕ о своем друге в ВК или FB
    |------------------------------------------------------------------ |-------------3-------------------------------3-------------------- |-/5--5-5---3-3-3--5--5-5------/5--3--3-3-----3-3--5--5-5---------- |-/5--5-5---3---3--5--5-5------/5--3--3-3-------3--5--5-5---------- |------------------------------------------------------------------ |---------------------------------------------------------------------- |---------------------------------------------------------------------- |-------------10--------------------------------------10--------------- |-10^-10^-10^-8--10-10^--10^-10^------10^-10--10-10---8--10-10^-10^-10^ |-10--10--10-----8--10---10--10-------10--8---8--8-------8--10--10--10- |---------------------------------------------------------------------- |-15---15--15--151815-151815----15---15--15------15---13---13--13---13--13--15---15--15-- |-18^--18^-18^--------------18--18^--18^-18^-----18^--16^--16^-16^--16^-16^-18^--18^-18^- |---------------------------------------------------------------------------------------- |------------------------------------------------------------------ |------------------------------------------------------------------ |------------------------------------------------------------------ solo: |-----151815--15-----------------|---------------------------------- |-18^-------18--1815--15---------|---------------------------------- |-------------------17--17-17-15-|-15-151715--1715-------17--1517--- |--------------------------------|----------17----17-1517--15------- |--------------------------------|---------------------------------- |--------------------------------|---------------------------------- b r |---------------------------------|---------------------------------- |-15------------------------------|-15------151815-18^^18--151815---- |---151715-151715-15--------------|---151715------------------------- |-------------------1715-15171517-|---------------------------------- |---------------------------------|---------------------------------- |---------------------------------|---------------------------------- b r b r b |----------------|---------15--|-1815--1815--18-15--151815--15-151815--- |-18^^18^^18-18^-|-18^-18^-----|-----15----15-----15------15---------15- |----------------|-------------|---------------------------------------- |----------------|-------------|---------------------------------------- |----------------|-------------|---------------------------------------- |----------------|-------------|---------------------------------------- |-151815--151815--151815--151815--151815-|-151815--15----------------------------- |-------15------15------15------15-------|-------18--1815------------------------- |----------------------------------------|---------------17^^1715-17-15-17-15--15- |----------------------------------------|-----------------------------------17--- |----------------------------------------|---------------------------------------- |----------------------------------------|---------------------------------------- |------------------------------------|------------------------------ |------------------------------------|------------------------------ |---------15--15-17-17^-17-15-1715---|-15-----------------17-1517--- |-17151715--17--------------------17-|---17-15-151715-1517---------- |------------------------------------|------------------------------ |------------------------------------|------------------------------ |--------------15---------18--18-|-18-18^^18--18-18^^18--18-18^^18-- |-151815--18^-----18-18^---------|---------------------------------- |-------17-----------------------|---------------------------------- |--------------------------------|---------------------------------- |--------------------------------|---------------------------------- |--------------------------------|---------------------------------- |-18-18^^18-15--18-18^^1815-18-18^^1815-|-1815------------------------------ |---------------------------------------|-----18---------------------------- |---------------------------------------|---------17151715----151715-151715- |---------------------------------------|-----------------15---------------- |---------------------------------------|----------------------------------- |---------------------------------------|----------------------------------- |--------------------------------|----------------------------------------x 2 |--------------------------------|---------------------------------------- |-151715-----151715----15-17-17^-|-17^^17^^17^^17^^17---1715----15-1715--- |-------17---------17------------|--------------------------17---------17- |--------------------------------|---------------------------------------- |--------------------------------|---------------------------------------- |------15-1815--15-1815----15-1815----15-|-1815---15-1815----15-1815----------- |-18^-------------------18---------18----|------18--------18---------18^^18-15- |----------------------------------------|------------------------------------- |----------------------------------------|------------------------------------- |----------------------------------------|------------------------------------- |----------------------------------------|------------------------------------- |-----------------|-----15-1815--15--------------------------------- |-18^^18^^18^^18--|-18^--------18---181518-------------------------- |-----------------|------------------------17^^17p15---------------- |-----------------|------------------------------------------------- |-----------------|------------------------------------------------- |-----------------|------------------------------ad lib in Em and fade...

    www.rdrop.com/~mjames/sabbath/
    найти лекарство
    список лекарств






    О сайтеАккордыХит-парадПоискУроки ФорумыИщу песню
    ПрограммыСвежачок-сПодпискаСтатьи
    Яндекс.Метрика