Табулатура Metallica | Metal Militia гитара табулатуры уроки тексты песен Metallica текст lyrics песня аккорды песни ноты нота электрогитара струна  
   А Б В Г Д Е Ж З И К Л М Н О П Р С Т У Ф Х Ч Ш Ы Э Ю Я       Разные песни
1-9 A B C D E F G H I J K L M N O P Q R S T U V W Y Z      Все исполнители in english

    



группа Metallica, Табулатура песни Metal Militia

Продолжаем грести бабос на ботах в Telegram.
Только в этот раз есть вариант автоматизировать это дело, привлекая рефералов. Вы можете заработать если »

Группа: Metallica - другие аккорды (225),   о группе (32 статей),   диски (11),   фотографии (49)
Табулатура песни: Metal Militia
Просмотров: 1804
Прислал: xAL (xal@akkords.ru)




    

--------------------------------|--8r---------8r----7-|
---------12--------10--------9--|--8r---------8r------|
-----10------8--9---------8-----|---------------------|
--9--------------------7--------|---------------------|
--------------------------------|---------------------|
--------------------------------|---------------------|

--10h7----7-10h7-----------------------|---------------------------------|
-------10--------10-7-7-7-10h7---------|---------------------------------|
-------------------------------9-7---7-|--9-7---7-9-7--------------------|
-----------------------------------9---|------9-------9-7-9h7---7-9h7----|
---------------------------------------|----------------------9-------9--|
---------------------------------------|---------------------------------|

-------------------------|--------------------------------|
-------------------------|--------------------------------|
-------------------------|---------------------------7-9--|
----------------5--------|-------------x-7-9h7---7-9------|
--9/7-5--7-5-------------|------5-5/9----------9----------|
-------------7-----------|--5h7---------------------------|

-------------------10h7----------------|--10h7----------------------------|
------------7-10h7------10-7----7-10h7-|-------10-7----7-10h7-------------|
--9h7---7-9b-----------------10--------|------------10--------9--7-----9r-|
------9--------------------------------|----------------------------9-----|
---------------------------------------|----------------------------------|
---------------------------------------|----------------------------------|

--------------------7-|--9-7-7-9-10-10-9-10-12-12-10-12-14-14-12-13-15-|
-----------------7----|------------------------------------------------|
------9b---9b----7----|------------------------------------------------|
----------------------|------------------------------------------------|
----------------------|------------------------------------------------|
----------------------|------------------------------------------------|

--15-14-14-15-17--16-17-19--17-19-20--19--|--22r-------22b---22b---|
------------------------------------------|------------------------|
------------------------------------------|------------------------|
------------------------------------------|------------------------|
------------------------------------------|------------------------|
------------------------------------------|------------------------|

--22r-------19h22h19----19-19-|

Продолжаем грести бабос на ботах в Telegram.
Только в этот раз есть вариант автоматизировать это дело, привлекая рефералов. Вы можете заработать если »

------------------------------| ------------------------------| ------------------------------| ------------------------------| ------------------------------| --22h19----19-22h19-------------------22h19-------| --------22----------22-19----19-22h19-------22-19-| --------------------------22----------------------| --------------------------------------------------| --------------------------------------------------| --------------------------------------------------| --------------22h19-------------------------------| -----19-22h19-------22-19-19-19-22h19----19-22h19-| --22----------------------------------21b---------| --------------------------------------------------| --------------------------------------------------| --------------------------------------------------| --------------22-19/18-------------------22h19/18-------| -----19h22h19----------22h19----19-22h19----------22-19-| --21b------------------------21b------------------------| --------------------------------------------------------| --------------------------------------------------------| --------------------------------------------------------| --------------------------|--------------------------------------| -----19-22h19----19-22h19-|--22b---22b---22b---22b---22b---22b---| --21b---------21----------|--------------------------------------| --------------------------|--------------------------------------| --------------------------|--------------------------------------| --------------------------|--------------------------------------| --------------------|------- --22b---------------|------- --------------------|--2---- --------------------|--2---- --------------------|--0---- --------------------|-------

искать в аптеке
список лекарств






О сайтеАккордыХит-парадПоискУроки ФорумыИщу песню
ПрограммыСвежачок-сПодпискаСтатьи
Яндекс.Метрика