Табулатура Black Sabbath | Lord Of This World  (2) гитара табулатуры уроки тексты песен Black Sabbath текст lyrics песня аккорды песни ноты нота электрогитара струна  
   А Б В Г Д Е Ж З И К Л М Н О П Р С Т У Ф Х Ч Ш Ы Э Ю Я       Разные песни
1-9 A B C D E F G H I J K L M N O P Q R S T U V W Y Z      Все исполнители in english

    



группа Black Sabbath, Табулатура песни Lord Of This World (2)

Работа в Европе для граждан РФ, Украины, СНГ

  • минимальная зарплата $500.
  • виза и контракт на полгода, возможно продление
  • проживание оплачивает работодатель
  • нужен только загранпаспорт
  • оформление 190 €
  • данное предложение - отличная возможность эмигрировать в Европу и закрепиться здесь навсегда.

  • Мы свяжемся с Вами по WhatsApp или Viber и ответим на любые вопросы.
    на нашем сайте можно почитать подробнее »

    Группа: Black Sabbath - другие аккорды (243),   о группе (21 статей),   диски (20),   фотографии (152)
    Табулатура песни: Lord Of This World (2)
    Просмотров: 1381
    Прислал: Sabbath (sabbath54@mail.ru)




        
    from- Michael James 
    Lord Of This World
    Black Sabbath - Master Of Reality (1971)
    Tune down 1 1/2 steps
    
    |----------------------------------
    |----------------------------------
    |----------------------------------
    |----------------------------------
    |-7--7-7-5---4---5-/7-------------
    |-0--0-0--------------/7---6---7---
    
    |----------------------------------------------------------
    |----------------------------------------------------------
    |-9--9-9---------------------------------------------------
    |-9--9-9-7---6---7--9--9---8---9---7-----------------------
    |-7--7-7-5---4---5--7--9---8---9---5-----------------------
    |----------------------7---6---7---------------------------
    
    |-------------------------------------------------------------------
    |-------------------------------------------------------------------
    |--9--9--7/9----7-/9--9---7-/9--7--9--7/9--9--7/9----7/9------7--8--
    |--9--9--7/9----7-/9--9---7-/9--5--9--7/9--9--7/9----7/9---9--7--8--
    |--7--7--5/7----5-/7--7---5-/7-----7--5/7--7--5/7----5/7---9--5--6--
    |----------------------------------------------------------7--------
    
    |------------------------------
    |------------------------------
    |------------------------------
    |-9----8----7-------7^---------
    |-9----8----7------------------
    |-7----6----5------------------
    
    |------------------------------------------------------------
    |------------------------------------------------------------
    |------------9^---------------------------9^-----------------
    |----------------9h11--9--7-----------------9h11--9--7-----
    |--7-8-9p7-------------------7-----9p7-------------------7---
    |----------9---------------------------9---------------------
    
    solo:                          (bend 1 up)       r
    |----------------------------------------------------------
    |----------------------------------------------------------
    |-----------4-4/7-7h9-9----(7)-9-9-9-9-9-9-9-9-9-^9--7h9-9-
    |------5-h7------------------------------------------------
    |--5h7-----------------------------------------------------
    |----------------------------------------------------------
                                                bend    r
    |--------------------------------------------------------------
    |--------------------------------------------------------------
    |-7---------------------------4-4/7-7h9-9--9-9-9-9-9^9---7h9-9-
    |---97-5---4-5-4h5p4-4-5-5/7----------------------------------
    
    Узнай ВСЕ о своем друге в ВК или FB
    |-------------------------------------------------------------- |-------------------------------------------------------------- |-----------------------------------------------12--------- |--------------------------------12--15-12-15^-----15-12--- |-7/9-9-9-9/12-12-12-12/14-14-14--------------------------- |---------------------------------------------------------- |---------------------------------------------------------- |---------------------------------------------------------- |---------------12----12--12-14-15-12-14-15-12-14-15^-15^-15^-12------ |------------------12-------------------------------------------12-15^ |-15-14-12--14^------------------------------------------------------- |--------------------------------------------------------------------- |--------------------------------------------------------------------- |--------------------------------------------------------------------- |-12---------------------12--------12------------------- |----15-12------------------12-15^----15-12------------- |----------15-14-12--14^--------------------14-12-14---- |------------------------------------------------------- |------------------------------------------------------- |------------------------------------------------------- |-12----12--15--15--15--15--15---------end 1st solo: |----15-----18^-18^-18^-18^-18^-------- |-------------------------------------- |-------------------------------------- |-------------------------------------- |-------------------------------------- |-------------------------------------------------------------- |-----------------------------------------------------------5-- |-----------------------------------------------7~----------7^- |-9-9-9-9-9----x---x---7-7-7-7-7--------9-9-9-9-----7-7-7-7---- |-9-9-9-9-9--x-x-x-x---7-7-7-7-7--------9-9-9-9-----7-7-7-7---- |-7-7-7-7-7--x---x-----5-5-5-5-5--0-----7-7-7-7-----5-5-5-5---- sorry, i'm not going to do the 2nd solo. If you can get the first one, just play the little variations. If you can get the first one, you should be able to ad lib thje 2nd one pretty good. |---------------------------------------------------------- |---------------------------------------------------------- |-9-----9------5-5--5-5---7-7--7-7-----12-11--------------- |-9-----9------5-5--5-5---7-7--7-7-----12-11--------------- |-7-----7------3-3--3-3---5-5--5-5-----10--9--------------- |----------------------------------------------------------

    www.rdrop.com/~mjames/sabbath/
    поиск лекарств
    список лекарств






    О сайтеАккордыХит-парадПоискУроки ФорумыИщу песню
    ПрограммыСвежачок-сПодпискаСтатьи
    Яндекс.Метрика