Басовая табулатура Black Sabbath | Children Of The Grave гитара табулатуры уроки тексты песен Black Sabbath текст lyrics песня аккорды песни ноты нота электрогитара струна  
   А Б В Г Д Е Ж З И К Л М Н О П Р С Т У Ф Х Ч Ш Ы Э Ю Я       Разные песни
1-9 A B C D E F G H I J K L M N O P Q R S T U V W Y Z      Все исполнители in english

    



группа Black Sabbath, Басовая табулатура песни Children Of The Grave

Продолжаем грести бабос на ботах в Telegram.
Только в этот раз есть вариант автоматизировать это дело, привлекая рефералов. Вы можете заработать если »

Группа: Black Sabbath - другие аккорды (243),   о группе (21 статей),   диски (20),   фотографии (152)
Басовая табулатура песни: Children Of The Grave
Просмотров: 898
Прислал: Sabbath (sabbath54@mail.ru)




    
From - Michael James 
Children Of The Grave - Bass
Black Sabbath - Master Of Reality (1971)
(tuned down 1 1/2 steps)
fig A
|-----------------------------------------------------------
|-------------------------------------------------10-9------
|-7-7-7-7-7-7-7-7-7-7-7-7-7-7-7-7-7-7-7-7-7-7-7-7-----------
|-----------------------------------------------------------
Fig B
|-------------------------------------------------------------
|-------------------------------------------------10-10-10-10-
|-7-7-7-7-7-7-7-10-10-10-10-10-----------7-8-9-10-------------
|------------------------------8-8-8-8-8----------------------
|------------------------------------------------------------------
|-10----------12-12-12-12-12---------------------------------------
|----7-8-9-10----------------9-10-11-12----------------9-10-11-12--
|---------------------------------------10-10-10-10-10-------------

Fig C
|----------------9---------------9--------------------------
|------7-9-7-8-9-----------7-8-9---8-7----------------------

Продолжаем грести бабос на ботах в Telegram.
Только в этот раз есть вариант автоматизировать это дело, привлекая рефералов. Вы можете заработать если »

|-7-10----------------7-10----------------------------------- |----------------------------------------------------------- Fig D |----------------------------------------------------------- |-----------------------------------------------11-12------- |-7-7-7-7-7-7-7-10-7-7-7-7-14-13-13-13-13-13-14------------- |----------------------------------------------------------- |----------------------------------------------------------- |----------------------------------------------------------- |-7-7-7-7-7-7-7-10-7-7-7-7---------------------------------- |--------------------------10-9-9-9-9-9-9-9--10------------- Fig E |----------------------------------------------------------- |----------------------------------------------------------- |-7-7--9-9--10-10--12-12--13--14---------------------------- |-----------------------------------------------------------

www.rdrop.com/~mjames/sabbath/
поиск лекарств
список лекарств






О сайтеАккордыХит-парадПоискУроки ФорумыИщу песню
ПрограммыСвежачок-сПодпискаСтатьи
Яндекс.Метрика