Табулатура Black Sabbath | Embrio гитара табулатуры уроки тексты песен Black Sabbath текст lyrics песня аккорды песни ноты нота электрогитара струна  
   А Б В Г Д Е Ж З И К Л М Н О П Р С Т У Ф Х Ч Ш Ы Э Ю Я       Разные песни
1-9 A B C D E F G H I J K L M N O P Q R S T U V W Y Z      Все исполнители in english

    



группа Black Sabbath, Табулатура песни Embrio

Продолжаем грести бабос на ботах в Telegram.
Только в этот раз есть вариант автоматизировать это дело, привлекая рефералов. Вы можете заработать если »

Группа: Black Sabbath - другие аккорды (243),   о группе (21 статей),   диски (20),   фотографии (152)
Табулатура песни: Embrio
Просмотров: 1629
Прислал: Sabbath (sabbath54@mail.ru)




    

from - Tony Iommi (as transcribed for his Guitar World colunm)
Embryo
Black Sabbath - Master Of Reality (1971)
Tune down 1 1/2 steps
|--0---0---0---0---0---0---0----0----
|------------------------------------
|------------------------------------
|--2---4---5---4---2h4-5p4-2----2p0--
|------------------------------------
|------------------------------------
|--0---0---0---0---0----0----0----0-0--
|--------------------------------------
|--------------------------------------
|--5---7---9---7---5h7--5p4--2----2p0--
|--------------------------------------
|--------------------------------------

|--0---0---0---0---0---0---0----0------
|--------------------------------------
|--------------------------------------
|--9---7---5---4---2h4-5p4-2----2p0----
|--------------------------------------
|--------------------------------------

|--0---0---0---0---0---0---0----0----
|------------------------------------
|------------------------------------
|--2---4---5---4---2h4-5p4-2----2p0--
|------------------------------------
|------------------------------------

|--0---0---0---0---0---0---0----0----

Продолжаем грести бабос на ботах в Telegram.
Только в этот раз есть вариант автоматизировать это дело, привлекая рефералов. Вы можете заработать если »

|------------------------------------ |------------------------------------ |-14--12---9--12---7h9-5p4-2----2p0-- |------------------------------------ |------------------------------------ |--0---0---0---0---0---0---0----0---- |------------------------------------ |------------------------------------ |--2---4---5---4---2h4-5p4-2----2p0-- |------------------------------------ |------------------------------------ |--3---2---0---0---0---0---0----0---- |------------------------------------ |------------------------------------ |--0---0---0---2---2h4-5p4-2----2p0-- |------------------------------------ |------------------------------------ |--7---5---3---0---0---0---0-------- |----------------------------------- |----------------------------------- |--5---4---2---0---2h4-5p4-2-------- |----------------------------------- |-----------------------------------

www.rdrop.com/~mjames/sabbath/
лекарство в аптеке
список лекарств






О сайтеАккордыХит-парадПоискУроки ФорумыИщу песню
ПрограммыСвежачок-сПодпискаСтатьи
Яндекс.Метрика