Басовая табулатура Black Sabbath | Sweet Leaf  (2) гитара табулатуры уроки тексты песен Black Sabbath текст lyrics песня аккорды песни ноты нота электрогитара струна  
   А Б В Г Д Е Ж З И К Л М Н О П Р С Т У Ф Х Ч Ш Ы Э Ю Я       Разные песни
1-9 A B C D E F G H I J K L M N O P Q R S T U V W Y Z      Все исполнители in english

    



группа Black Sabbath, Басовая табулатура песни Sweet Leaf (2)

Продолжаем грести бабос на ботах в Telegram.
Только в этот раз есть вариант автоматизировать это дело, привлекая рефералов. Вы можете заработать если »

Группа: Black Sabbath - другие аккорды (243),   о группе (21 статей),   диски (20),   фотографии (152)
Басовая табулатура песни: Sweet Leaf (2)
Просмотров: 1265
Прислал: Sabbath (sabbath54@mail.ru)




    
from - KtuluKid@aol.com
Sweetleaf - Bass
Black Sabbath - Master Of Reality (1971)       

         Alright now...
         ||--------------------------------------------------||-------
         ||--------------------------------------------------||-------
         ||----------5-4-3--3-3-5----------5-4-3--3/12b-12b--||-------
         ||--5--5-----------------5--5---------------------||-5-----
         --------------------------------------------------------9--7-
         ----------------7-7--7--7-7-7-5------------------------------
         -------3--7---------------------7--------------3--7----------
         --3----------5--------------------5-------3----------5-------
         -5-----------------------------------------------------------
         -----7-5------------------------------7-7--7--7-7-5----------
         ---------7-5-3---------------3--7-------------------7-5------
         ----------------5-------3----------5---------------------5---
         -------------------------------------||----------------------
         ------------------7-7--7--7-7-7-5----||----------------------
         ---------3--7---------------------7--||----------------------
         ----3----------5---------------------||-5------5------5-----5
         -------------------------------------------------------------
         ---------9----------------9-------9---------11-11-11-11-11-11
         -------9----------------9---9---9---9-----11-----------------
         -----7-----7-7-7-7-7--7-------7-------7-9--------------------
         -------------------------------------------------------------
         -11-11-11-11-11-11-----9----------------9-------9----------11
         ---------------------9----------------9---9---9---9-----11---
         -------------------7-----7-7-7-7-7--7-------7-------7-9------
         -------------------------------------------------------------
         --13--11-9----9-11-9--------9----------------9-------9-------

Продолжаем грести бабос на ботах в Telegram.
Только в этот раз есть вариант автоматизировать это дело, привлекая рефералов. Вы можете заработать если »

-----------11--------11---9----------------9---9---9---9----- ------------------------7-----7-7-7-7-7--7-------7-------7-9- ------------------------------------------------------------- -11-11-11-11-11-11-11-11-11-11-11-11-11-11-11-11-11---------- ------------------------------------------------------------- ----------------------------------------------------9-9-9-9-9 -----------------------------------------------------------|| -----------------------------------------------------------|| -----------------------------------------------------------|| 9-9-9-9-9-9-9--7-9--------7-9--------7-9------7-9-------|| Solo(not actual Geezer solo...but an example) ------------------------------------------------------------- ---9-7-------7---9-7---------------9-7---7-9-11-9-7---7------ -------9-7-9---9-----9-7---7-----------9------------9---9-7-- -9-----------------------9---9-7-9--------------------------9 ------------------------------------------------------------- -----9-7-------7---9-7--------------------------------------- -7-------9-7-9---9-----9-7---7-----/4----------/4-------/4--- ---9-----------------------9---9-7----5-4-3-------5-4-3----5- --------||b=bend --------||/=slide up --------||=slide down -4-3----||

www.rdrop.com/~mjames/sabbath/
лекарство в аптеке
список лекарств






О сайтеАккордыХит-парадПоискУроки ФорумыИщу песню
ПрограммыСвежачок-сПодпискаСтатьи
Яндекс.Метрика