Табулатура Black Sabbath | Sweet Leaf  (2) гитара табулатуры уроки тексты песен Black Sabbath текст lyrics песня аккорды песни ноты нота электрогитара струна  
   А Б В Г Д Е Ж З И К Л М Н О П Р С Т У Ф Х Ч Ш Ы Э Ю Я       Разные песни
1-9 A B C D E F G H I J K L M N O P Q R S T U V W Y Z      Все исполнители in english

    



группа Black Sabbath, Табулатура песни Sweet Leaf (2)

Продолжаем грести бабос на ботах в Telegram.
Только в этот раз есть вариант автоматизировать это дело, привлекая рефералов. Вы можете заработать если »

Группа: Black Sabbath - другие аккорды (243),   о группе (21 статей),   диски (20),   фотографии (152)
Табулатура песни: Sweet Leaf (2)
Просмотров: 1156
Прислал: Sabbath (sabbath54@mail.ru)




    
from- Michael James 
Sweet Leaf
Black Sabbath - Master Of Reality (1971)
 
Tune down 1 1/2 steps
 
|-------------------------------|-------------------------------------------
|-------------------------------|-------------------------------------------
|-------------------------------|-------------------------------------------
|-------x-x---76-5-------5/7---|----------x-x----76-5-------5/7-----------
|-7-7---------54-3---(0)-3/5---|----7-7----------54-3---(0)-3/5-----------
|-5-5---------------------------|----5-5------------------------------------
|                               | 
|-------------------------------|---------------------------------
|-------------------------------|---------------------------------
|-------------76-5-------5-7---|-----------------76-5-------5-7-
|-5h7-7------------------------|--5h7-7-------------------------
|-------------------------------|---------------------------------
|-------------------------------|---------------------------------
 
 
|-------------------------------|-------------------------------
|-------------------------------|-------------------------------
|-------------------------------|-------------------------------
|-------------------------------|-------------------------------
|-7---(7)-----5----10---14--7-|-7---(7)-----5---10--14--7---
|-5---(5)-----3-----8---12--5-|-5---(5)-----3----8--12--5---
|                               |
|-------------------------------|-------------------------------
|-------------------------------|-------------------------------
|--------------------5---7^p5---|-------------------5--7^p5-----
|5/7-----------5--------------7-|5/7-----------5------------7---
|-------------------------------|-------------------------------
|-------------------------------|-------------------------------

Продолжаем грести бабос на ботах в Telegram.
Только в этот раз есть вариант автоматизировать это дело, привлекая рефералов. Вы можете заработать если »

|---------------------------------------------------------- |---------------------------------------------------------- |---------------------------------------------------------- |--4-------4-4-4-4/6----6-6-------------------------------- |--2-------2-2-2-2/4----4-4-------------------------------- |---------------------------------------------------------- |---------------------------------------------------------- |--6-7-6h7p6---6-7-6h7p6---6-7-6h7p6---6-7-6h7p6---7-7/9--- |------------6-----------6-----------6-----------6--------- |---------------------------------------------------------- |---------------------------------------------------------- |---------------------------------------------------------- Solo: |-------9~---9---------------|----------9----------9-------- |-12^----------12-9----------|-------------12-12^----------- |--------------------11p9----|-9-11^------------------------ |-------------------------11-|------------------------------ |----------------------------|------------------------------ |----------------------------|------------------------------ |-------9~---9---------------|--------------------------------- |-12^----------12-9----------|--------------------------------- |--------------------11p9----|-11p9---------------------------- |-------------------------11-|------11--11p9------------------- |----------------------------|---------------11---------------- |----------------------------|-------------------12--9--------- |---------------------------------------------------------- |---------------------------------------------------------- |---------------------------------------------------------- |-6-------------------6------------------------------------ |-4--7--6--5---------4--7--6--5-------------------------- |----5--4--3------------5--4--3--------------------------

www.rdrop.com/~mjames/sabbath/
лекарство в аптеке
список лекарств






О сайтеАккордыХит-парадПоискУроки ФорумыИщу песню
ПрограммыСвежачок-сПодпискаСтатьи
Яндекс.Метрика