Табулатура Black Sabbath | After Forever  (2) гитара табулатуры уроки тексты песен Black Sabbath текст lyrics песня аккорды песни ноты нота электрогитара струна  
   А Б В Г Д Е Ж З И К Л М Н О П Р С Т У Ф Х Ч Ш Ы Э Ю Я       Разные песни
1-9 A B C D E F G H I J K L M N O P Q R S T U V W Y Z      Все исполнители in english

    



группа Black Sabbath, Табулатура песни After Forever (2)

Работа в Европе для граждан РФ, Украины, СНГ

  • минимальная зарплата $500.
  • виза и контракт на полгода, возможно продление
  • проживание оплачивает работодатель
  • нужен только загранпаспорт
  • оформление 190 €
  • данное предложение - отличная возможность эмигрировать в Европу и закрепиться здесь навсегда.

  • Мы свяжемся с Вами по WhatsApp или Viber и ответим на любые вопросы.
    на нашем сайте можно почитать подробнее »

    Группа: Black Sabbath - другие аккорды (243),   о группе (21 статей),   диски (20),   фотографии (152)
    Табулатура песни: After Forever (2)
    Просмотров: 828
    Прислал: Sabbath (sabbath54@mail.ru)




        
    from- Michael James 
    After Forever
    Black Sabbath - Master Of Reality (1971)
    Tune down 1 1/2 steps
    |-----------------------------------------------------------
    |-----------------------------------------------------------
    |-----------------------------------------------------------
    |-11-9-7-9-9-7-2-0-2-2-2-0-11-9-7-9-9/-11-9-7-9-9/----------
    |--0-0-0-0-0-0-0-0-0-0-0-0--0-0-0-0-0---0-0-0-0-0-----------
    |-----------------------------------------------------------
    |----------------------------------------------------------
    |----------------------------------------------------------
    |--7/9-9-9-9---9/12-12-12-12---7/9-9-9-9-------------------
    |--7/9-9-9-9---9/12-12-12-12---7/9-9-9-9-------------------
    |-x5/7-7-7-7-x-7/10-10-10-10-x-5/7-7-7-7----5-5-5-5-(5)p4--
    |-----------------------------------------0-3-3-3-3-(3)p2--
    |------------------------------
    |------------------------------
    |------------------------------
    |-5--5--5---5---3--3--83--5---
    |-5--5--5h7-7p5-3--3--83--5---
    |------------------------------
    |------------------------------
    |------------------------------
    |------------------------------
    |-7--7--7---7---5--5-105--7---
    |-7--7--7h9-9p7-5--5-105--7---
    |------------------------------
    |----------------------------------------------------------
    |----------------------------------------------------------
    |----------------------------------------------------------
    |----------7--7-------------------7--7---------------------
    |---------------5h6p5---5--------------5h6p5---5-----------
    |-3-4-5--5------------8---8--5--5------------8-------------
    Solo:
    |----------------------------------------------------------
    
    Узнай ВСЕ о своем друге в ВК или FB
    |---------------------------------------------------------- |------------------------------7~-------------------------- |---------------9---------7--9----9p7-9-------------------- |---------7-8-9---7---7-9---------------------------------- |-5/7-7-10------------------------------------------------- |---------------------------------------7----7--------------- |---------------------------------7---10------10-7----------- |-----------------------------7-9---7--------------9^^9-8---- |-----------9-----------7-8-9-------------------------------- |-----7-8-9---7---7-8-9-------------------------------------- |-7-10------------------------------------------------------- |--------------------------10p7-7------------------------------- |----10------10-10-10p7--10-------/12-12---12-12p10------------- |-/11--9-7-/11----------9---------------11---------11-11p9------ |----------------------------------------------------------11-12 |--------------------------------------------------------------- |--------------------------------------------------------------- |----------------------------------------------------------- |-------7-10--7-10--7-10--7-10--7-10--7-10--7-10--7-10------ |----9^-----9^----9^----9^----9^----9^----9^----9^---------- |-12-------------------------------------------------------- |----------------------------------------------------------- |----------------------------------------------------------- |-------------------- |-------------------- |-9^p7---9-----7----- |-----9-----9-------- |-------------------- |--------------------

    www.rdrop.com/~mjames/sabbath/
    поиск лекарств
    список лекарств






    О сайтеАккордыХит-парадПоискУроки ФорумыИщу песню
    ПрограммыСвежачок-сПодпискаСтатьи
    Яндекс.Метрика