Табулатура Black Sabbath | Solitude  (2) гитара табулатуры уроки тексты песен Black Sabbath текст lyrics песня аккорды песни ноты нота электрогитара струна  
   А Б В Г Д Е Ж З И К Л М Н О П Р С Т У Ф Х Ч Ш Ы Э Ю Я       Разные песни
1-9 A B C D E F G H I J K L M N O P Q R S T U V W Y Z      Все исполнители in english

    



группа Black Sabbath, Табулатура песни Solitude (2)

Продолжаем грести бабос на ботах в Telegram.
Только в этот раз есть вариант автоматизировать это дело, привлекая рефералов. Вы можете заработать если »

Группа: Black Sabbath - другие аккорды (243),   о группе (21 статей),   диски (20),   фотографии (152)
Табулатура песни: Solitude (2)
Просмотров: 1860
Подобрал: Sabbath (sabbath54@mail.ru)




    
from- Michael James 
Solitude
Black Sabbath - Master Of Reality (1971)
Tune down 1 1/2 steps
Fig A
|--------------------------------------------------------------
|-------3-----------------3-----------3-----------------3------
|-----3---5-2h3p2-------3---5-------3---5-2h3p2-------3---5----
|-5---------------3-5-----------5---------------3-5------------
|--------------------------------------------------------------
|--------------------------------------------------------------
Fig A (cont)
|-5h6p5---5-5----5h6p5---5-5----------------------------------------
|-------6--------------6--------------3-----------------3-----------
|-----------------------------------3---5-2h3p2-------3---5-2h3p2---
|-------------------------------5---------------3-5---------------3-
|-------------------------------------------------------------------
|-------------------------------------------------------------------
Gm        F        Gm         F  
my name it means nothing, my fortune is less..                                
   Gm             F           F          Gm
Gm        F        Gm         F
and so on...
Fig B
|-------------------------------------------------------------------------
|-----3--------------3------------3---------------3-------------3---------
|-3-----5-232------3---5--------3---5-232-------3---5-232-----3---5-232---

Продолжаем грести бабос на ботах в Telegram.
Только в этот раз есть вариант автоматизировать это дело, привлекая рефералов. Вы можете заработать если »

|-------------3-/5----------5-------------3-5-------------3-5-----------3- |------------------------------------------------------------------------- |------------------------------------------------------------------------- Fig C |-------------------------------------------------------------- |-------------------------------------------------------------- |-----232--------------5-2---------232--------------5-2-------- |-5-------3-3-----3-5----/5---5-------3-3-----3-5----/5------ |--------------3-5--------------------------3-5---------------- |-------------------------------------------------------------- Fig C (cont) |-------------------------------------------------------------- |-------------------------------------------------------------- |-2/3-2-----3-2-----------32--------232--------------5-2------ |-------5-------5---3-3-5-----5---5------3-3-----3-5----/5---- |---------------------------------------------3-5-------------- |--------------------------------------------------------------

лекарство в аптеке
список лекарств






О сайтеАккордыХит-парадПоискУроки ФорумыИщу песню
ПрограммыСвежачок-сПодпискаСтатьи
Яндекс.Метрика