Басовая табулатура Black Sabbath | Fairies Wear Boots гитара табулатуры уроки тексты песен Black Sabbath текст lyrics песня аккорды песни ноты нота электрогитара струна  
   А Б В Г Д Е Ж З И К Л М Н О П Р С Т У Ф Х Ч Ш Ы Э Ю Я       Разные песни
1-9 A B C D E F G H I J K L M N O P Q R S T U V W Y Z      Все исполнители in english

    



группа Black Sabbath, Басовая табулатура песни Fairies Wear Boots

Продолжаем грести бабос на ботах в Telegram.
Только в этот раз есть вариант автоматизировать это дело, привлекая рефералов. Вы можете заработать если »

Группа: Black Sabbath - другие аккорды (243),   о группе (21 статей),   диски (20),   фотографии (152)
Басовая табулатура песни: Fairies Wear Boots
Просмотров: 1635
Прислал: Sabbath (sabbath54@mail.ru)




    

Fairies Wear Boots - Bass
Black Sabbath - Paranoid (1970)

      intro                                      play 2x
     ||------------------------------------------|-----------------------
     ||----5-5---------5-5---------5-3---5-3---3-|------------/7-5-------
     ||--5-----5-----5-----5-----5-----5-----5---|-----------------7--5-7
     ||----------3-----------3-------------------|--5--5-5--5------------
                                   play 2x
     -----------------------------|--------------------------------------
     ----------5---7--5-------5-7-|--------------7---9-7---------9-7-----
     --------7---7------7-5-7-----|------6-7---9---9-----9-7---9-----9-7-
     ----5-5----------------------|--7-7---------------------7-----------
                     play 2x
     ---------------|-------------|--------------------------------------
     ---7---9-7-----|-------------|-----------11-9----11-9----9----------
     -9---9-----9-7-|--7--5-------|--------11------11------11----7-7-----
     ---------------|--------7--5-|-7-8-9-----------------------------9-9

     --------------------------------------------------------------------
     -----------------9----11-9------------11-9---------9----11-9--------
     -------7-9-10-11---11------11-9----11------11-9-11---11------11-----
     -7-8-9---------------------------9-------------------------------9-9
                                                     Goin home late last 
     --------------------------------|--------------||-------------------
     -----------------9----11-9------|--------------||--------------5-3--

Продолжаем грести бабос на ботах в Telegram.
Только в этот раз есть вариант автоматизировать это дело, привлекая рефералов. Вы можете заработать если »

-------7-9-10-11---11------11-9-|--7--5--------||-----------------5- -7-8-9--------------------------|--------7--5--||--3--3-6--6-3------ night pre solo 2x ------------------||------------------------------------------------ ------------------||---------------------3-5----5-5--5-3--------5-5- ------------------||-----------------3-5-----------------5-3-------- --3--3-6--6-3-1---||--3--3-3--3-3--5----------3---------------3----- solo... groove with these notes ----------||-------------------------------|------3-----3---3-5b(7)- --5-3-----||---------------------5---------|----5---3-5---5--------- ------5-3-||-----1---3-3b(5)-------1--3b(5)|------------------------ ----------||-3----------------3------------|--3--------------------- outro -3------||---------------------------------------------------------- ---5--3-||-----------------5---3---3---3---3---3-----3---5---5---5-- --------||---------------------------------------------------------- --------||--3-3-3-3-3-3-3----1---1---1---1---1---1-1---3---3---3---3 repeat and fade. ----------------------||/=slide up The timing for the intro is a ----5---5---5-----5---||h=hammer-on little hard, listen for and ----------------------||p=pull-off piece the song together. -3---3---3---3-3------||( )=bend to

www.rdrop.com/~mjames/sabbath/
найти лекарство
список лекарств






О сайтеАккордыХит-парадПоискУроки ФорумыИщу песню
ПрограммыСвежачок-сПодпискаСтатьи
Яндекс.Метрика