Табулатура Black Sabbath | Fairies Wear Boots  (2) гитара табулатуры уроки тексты песен Black Sabbath текст lyrics песня аккорды песни ноты нота электрогитара струна  
   А Б В Г Д Е Ж З И К Л М Н О П Р С Т У Ф Х Ч Ш Ы Э Ю Я       Разные песни
1-9 A B C D E F G H I J K L M N O P Q R S T U V W Y Z      Все исполнители in english

    



группа Black Sabbath, Табулатура песни Fairies Wear Boots (2)

Работа в Европе для граждан РФ, Украины, СНГ

  • минимальная зарплата $500.
  • виза и контракт на полгода, возможно продление
  • проживание оплачивает работодатель
  • нужен только загранпаспорт
  • оформление 190 €
  • данное предложение - отличная возможность эмигрировать в Европу и закрепиться здесь навсегда.

  • Мы свяжемся с Вами по WhatsApp или Viber и ответим на любые вопросы.
    на нашем сайте можно почитать подробнее »

    Группа: Black Sabbath - другие аккорды (243),   о группе (21 статей),   диски (20),   фотографии (152)
    Табулатура песни: Fairies Wear Boots (2)
    Просмотров: 917
    Прислал: Sabbath (sabbath54@mail.ru)




        
    Fairies Wear Boots / Jack The Stripper
    Black Sabbath - Paranoid (1970)
    
    |----------------------------------------------------------------
    |----------------------------------------------------------------
    |----------3-----------3-------------------3------------3--------
    |------3-----5-5----3----5--3h5----------3---5-5------3---5--3h5-
    |----5------------5--------------------5------------5------------
    |--3-------------------------------3-----------------------------
    |------------------------------
    |------------------------------
    |---------3---------3-----3----
    |------3----5-5---3---5-----5--
    |----5----------5--------------
    |--3---------------------------
    |-----------------------------------------------------------------------------
    |-----------------------------------------------------------------------------
    |----5-5p4---4---------------5-5p4---4-------------------5p4---4--------------
    |-/7-------7---7-5-5h7-5h7---------7---7-5-5h7-5h7-----5-----7---7-5-5h7-5h7--
    |--------------------------------------------------5h7------------------------
    |-----------------------------------------------------------------------------
    |------------------------------
    |------------------------------
    |-5p4---5p4---5p4---5p4---4----
    |-----7-----7-----7-----7---7--
    |------------------------------
    |------------------------------
             (slide up then down)
    |5/7--10-10///\------7-5-5/7----------------------------
    |--------------------------------------------------------
    |2/4---7--7///\------4-2-2/4----------------------------
    |--------------------------------------------------------
    |--------------------------------------------------------
    |--------------------------------------------------------
    |--12=1210--7=75----5/7---5/7-10-10/12=12u--7-5-5/7---7-7/10-12-12/14-10u-
    |---------------------------*---------------------------*---------------------
    |------9 7----42--2=2/4---2/4--7--7 /9^10u--4-2-2/4---4-4 /7--9--9/11--7u-
    |-----------------------------------------------------------------------------
    |-----------------------------------------------------------------------------
    |-----------------------------------------------------------------------------
    |-------------------------------------
    |-------------------------------------
    |-------9-7----------9-7------------
    |-------9-7---9-7---9-7---9-7-----
    |-------7-5---9-7---7-5---9-7-----
    |--------------7-5----------7-5-----
    Solo:
    |---------------------------9-----------------12^-12^---12p9------9-----------
    |-------------------------9---12-12^----12p9-----------------9h12---12-9-9----
    |--------------------9-11^----------------------------------------------------
    |---------------9-11----------------------------------------------------------
    |---9-10-11-------------------------------------------------------------------
    |---7--8--9-------------------------------------------------------------------
                                                                
    |-------------------9-----------------------------9---------------------------
    |-----------------9--12-------------------------9---12-------------9----------
    |--11-11---(11^13)------(11^13)-(11^13)-(11^12)--------(11^**)-9------12p11p9-
    |-----------------------------------------------------------------------------
    |-----------------------------------------------------------------------------
    |-----------------------------------------------------------------------------
    |--------------------9-------------------
    
    Узнай ВСЕ о своем друге в ВК или FB
    |------------------9---12--9------------ |-11p10p9----11^(**)---------(11^12)--9- |--------------------------------------- |--------------------------------------- |--------------------------------------- Verse groove: |-------------------------------------- |-------------------------------------- |-------------------------------------- |---------------5---------------------- |--5-5--8-8--5--3-----5-5--8-8--5--3--- |--3-3--6-6--3--------3-3--6-6--3--1--- Pre-solo: |-------------------------- |-------------------------- |-------------------------- |-3h5-(3)h5-------3-------- |-------------3-5---5------ |---------------------3^-^- |------------------------------------------------------------------- |-3--/-6--/--8-/15(1)--3--/-6--/--8-/15(1)--3--/-6--/--8--/-10---- |-5^-/-8^-/-10^/--------5^-/-8^-/-10^/--------5^-/-8^-/-10^-/-12^--- |------------------------------------------------------------------- |------------------------------------------------------------------- |------------------------------------------------------------------- |--------15------------------------18^-18^-p15-18p15---18p15------------- |-----15----18^-18^-18^-18^-^---15------------------18-------18-18p15---- |--17-----------------------------------------------------------------17- |------------------------------------------------------------------------ |------------------------------------------------------------------------ |------------------------------------------------------------------------ |--------15--------------------15--------------- |-----15----18p15-----------15----18p15--------- |--17^------------17-15-17^-------------17-15--- |----------------------------------------------- |----------------------------------------------- |----------------------------------------------- |---------------------3-------------3---------------3--------------3------------- |---3---------------3---6p3-----------6p3---------3---6p3--------3---6p3--------- |---3--------3---5^---------5-3--5^-------5-3--5^---------5-3-5^---------5-5p3--- |-5----5-3-5-------------------------------------------------------------------5- |-------------------------------------------------------------------------------- |-------------------------------------------------------------------------------- |-------------------------- |-------------------------- |-------------------------- |-3h5-(3)h5-------3-------- |-------------3-5---5------ |---------------------3^-^- |--5h6---5-----5h6---5---------- |------8---6h8-----8---6h8------ |------------------------------- |------------------------------- |------------------------------- |-------------------------------

    www.rdrop.com/~mjames/sabbath/
    поиск лекарств
    список лекарств






    О сайтеАккордыХит-парадПоискУроки ФорумыИщу песню
    ПрограммыСвежачок-сПодпискаСтатьи
    Яндекс.Метрика