Басовая табулатура Black Sabbath | Electric Feneral гитара табулатуры уроки тексты песен Black Sabbath текст lyrics песня аккорды песни ноты нота электрогитара струна  
   А Б В Г Д Е Ж З И К Л М Н О П Р С Т У Ф Х Ч Ш Ы Э Ю Я       Разные песни
1-9 A B C D E F G H I J K L M N O P Q R S T U V W Y Z      Все исполнители in english

    



группа Black Sabbath, Басовая табулатура песни Electric Feneral

Продолжаем грести бабос на ботах в Telegram.
Только в этот раз есть вариант автоматизировать это дело, привлекая рефералов. Вы можете заработать если »

Группа: Black Sabbath - другие аккорды (243),   о группе (21 статей),   диски (20),   фотографии (152)
Басовая табулатура песни: Electric Feneral
Просмотров: 1259
Прислал: Sabbath (sabbath54@mail.ru)




    
Electric Funeral - Bass
Black Sabbath - Paranoid (1970)

---------------------------------
---------------------------------
--------2--3--2------------------
-0---0------------0---2--3--2----

-----------------------------------------------
-----------------------------------------------
------2---1---0-------------------2---1---0----
--0-------------3----0--0--0--0--------------3-

-----------------
-----------------
-----------------
---7--6--5-------

-------------12-12-12-12-12--------------12-12-12-12-12-------------12-
-2--0--2---------------------2--0--2----------------------2--0--2------

Продолжаем грести бабос на ботах в Telegram.
Только в этот раз есть вариант автоматизировать это дело, привлекая рефералов. Вы можете заработать если »

----------------------------------------------------------------------- ----------------------------------------------------------------------- -12-12-12-12-------------12-12-12-12-12--- ---------------2--0--2-------------------- ------------------------------------------ ------------------------------------------ --9--12--14--12--16--|--9--12--14--16--12--|--17--17--17--17---- ---------------------|---------------------|-------------------- ---------------------|---------------------|-------------------- ---------------------|---------------------|-------------------- -7--7--7--9/(15)---- -------------------- -------------------- --------------------

www.rdrop.com/~mjames/sabbath/
поиск лекарств
список лекарств






О сайтеАккордыХит-парадПоискУроки ФорумыИщу песню
ПрограммыСвежачок-сПодпискаСтатьи
Яндекс.Метрика