Табулатура Black Sabbath | Electric Feneral  (2) гитара табулатуры уроки тексты песен Black Sabbath текст lyrics песня аккорды песни ноты нота электрогитара струна  
   А Б В Г Д Е Ж З И К Л М Н О П Р С Т У Ф Х Ч Ш Ы Э Ю Я       Разные песни
1-9 A B C D E F G H I J K L M N O P Q R S T U V W Y Z      Все исполнители in english

    



группа Black Sabbath, Табулатура песни Electric Feneral (2)

Продолжаем грести бабос на ботах в Telegram.
Только в этот раз есть вариант автоматизировать это дело, привлекая рефералов. Вы можете заработать если »

Группа: Black Sabbath - другие аккорды (243),   о группе (21 статей),   диски (20),   фотографии (152)
Табулатура песни: Electric Feneral (2)
Просмотров: 1166
Прислал: Sabbath (sabbath54@mail.ru)




    
Electric Funeral
Black Sabbath - Paranoid (1970)

|------------------------------------|--------------------------|--------
|------------------------------------|--------------------------|--------
|------------------------------------|--------------------------|--------
|------------------------------------|--------------------------|--------
|----------2h3--2~~~-----------------|-------2~~~--1~~~--0------|--------
|----0--0-------------0--2h3--2~~~---|----0-----------------3---|--------
                                                                                
     Fig 3                 Fig 4
|--------------|------------12--12--12--12--12--|-----------12--12--12----
|--------------|------------12--12--12--12--12--|-----------12--12--12----
|--------------|------------12--12--12--12--12--|-----------12--12--12----
|--------------|--------------------------------|-------------------------
|---14-13-12---|--14-12-14----------------------|-14-12-14----------------
|---12-11-10---|--12-10-12----------------------|-12-10-12----------------
                                                                                

Продолжаем грести бабос на ботах в Telegram.
Только в этот раз есть вариант автоматизировать это дело, привлекая рефералов. Вы можете заработать если »

|-------------------|---------------------|--------------- |-------------------|---------------------|--------------- |----12-14-12-14^---|----12-14-14^-12-----|--------------- |-14----------------|-14--------------14--|--------------- |-------------------|---------------------|--------------- |-------------------|---------------------|--------------- |-12--12--12--12---12--12--12--12-|------------------|--------------- |-15^-15^-15^-15^--15^-15^-15^-15^|-3--3--3---5------|-3--3--3---5--- |---------------------------------|-5^-5^-5^--7^/12-|-5^-5^-5^--7^-- |----------------------------(X2)-|---------(X3)-----|--------------- |--7--6--5---------7--6--5--------|------------------|--------------- |-----------7-6-5-----------7-6-5-|------------------|---------------

www.rdrop.com/~mjames/sabbath/
найти лекарство
список лекарств






О сайтеАккордыХит-парадПоискУроки ФорумыИщу песню
ПрограммыСвежачок-сПодпискаСтатьи
Яндекс.Метрика