Табулатура Black Sabbath | Iron Man  (2) гитара табулатуры уроки тексты песен Black Sabbath текст lyrics песня аккорды песни ноты нота электрогитара струна  
   А Б В Г Д Е Ж З И К Л М Н О П Р С Т У Ф Х Ч Ш Ы Э Ю Я       Разные песни
1-9 A B C D E F G H I J K L M N O P Q R S T U V W Y Z      Все исполнители in english

    



группа Black Sabbath, Табулатура песни Iron Man (2)

Работа в Европе для граждан РФ, Украины, СНГ

  • минимальная зарплата $500.
  • виза и контракт на полгода, возможно продление
  • проживание оплачивает работодатель
  • нужен только загранпаспорт
  • оформление 190 €
  • данное предложение - отличная возможность эмигрировать в Европу и закрепиться здесь навсегда.

  • Мы свяжемся с Вами по WhatsApp или Viber и ответим на любые вопросы.
    на нашем сайте можно почитать подробнее »

    Группа: Black Sabbath - другие аккорды (243),   о группе (21 статей),   диски (20),   фотографии (152)
    Табулатура песни: Iron Man (2)
    Просмотров: 1601
    Прислал: Sabbath (sabbath54@mail.ru)




        
    Iron Man
    Black Sabbath - Paranoid (1970)
    Intro: bend behind nut on open E string.
    |-------------------|
    |-------------------|
    |-----/|------------|
    |i2-/------(X 3)---| i = index finger
    |---/--------------|
    |t0^---------------| t = thumb
    |-------------------------------------------------------------
    |-------------------------------------------------------------
    |-------------------------------------------------------------
    |-------------------------------------------------------------
    |--9-/-12--12/14-14----1716-1716-1712--12-12/14-14---------
    |--7-/-10--10/12-12----1514-1514-1510--10-10/12-12---------
    
    |-------------------------------
    |-------------------------------
    |-------------------------------
    |-------------------------------
    |------5------------------------
    |--7-7---7--6-5-5-5--0-4-5-5-6--
    
    |------------------------------------------------
    |------------------------------------------------
    |------------------------------------------------
    |------------------7-8-9----------------7-8-9----
    |-9-9------7-7-8-9------9-9------7-7-8-9---------
    |-7-7-7-10--------------7-7-7-10-----------------
    
    |-----------------------------------------------------------
    |-----------------------------------------------------------
    |11-9-----------------------11-9----------------------------
    |----11-10-9--------------------11-10-9---------------------
    |------------7--------------------------7-------------------
    |--------------7-7/9-9--------------------7-7/9-9-----------
    Solo 1:
    |------------------------------------------------------------
    |---------------------------------5----------5-5-------------
    |-------------------------4-4-4h6---6--6p4-------6p4---4h6---
    |-----2-2h4-4p2---2-4-4/6------------------6---------6-------
    |-2-4-----------4--------------------------------------------
    |------------------------------------------------------------
    |-------------9-----------------------------------9---------------
    |-------------9--12p9-----9-------------------------129----9-129--
    |-6---11-11^----------11----9-9^------------9-11^------119--------
    |---------------------------------11-9-9h11-----------------------
    |-----------------------------------------------------------------
    |-----------------------------------------------------------------
    |----------------9-12^----9--------12^---12^^12---12^^12-129----9---------
    |----9-129-----9---12^------12-9-9---------------------------12---12-12^--
    
    Узнай ВСЕ о своем друге в ВК или FB
    |-11-------119------------------------------------------------------------ |------------------------------------------------------------------------- |------------------------------------------------------------------------- |------------------------------------------------------------------------- |-----9---------9------------------------------------------------------- |-12^---129---9---129--------------------------------------------------- |----------11---------11-11p9---9-9--------------9-9--------------9----- |----------------------------11-----11p9----9h11-----11p9----9-11-9-9--- |----------------------------------------11---------------11------------ |----------------------------------------------------------------------- |---------------------------------------------------------- |---------------------------------------------------------- |------------------------6-4------------------------------- |-9h11-9h11-9h11-9h11--------6-5-4-2----------------------- |------------------------------------2-2/4-4--------------- |---------------------------------------------------------- |---------------------------------------------------------- |---------------------------------------------------------- |---------------------------------------------------------- |----------------------------4-5-4-5p4h5p4p0--------------- |--7h5-7---5h7p5-----7h5-7--------------------------------- |---------------------------------------------------------- Solo 2: |---------------------------------------------------------- |---------------------------------------------------------- |--------------7---7-9-9^^^--9^^^---9^^--7---7/9----------- |------5---7/9---9-------------------------9--------------- |--6/7---7------------------------------------------------- |---------------------------------------------------------- |-----------10-10h12-12^-12^-12^^-10-12p10-----10---------------------- |-8---10/12---------------------------------------12-1210-8-11-8------ |---9--------------------------------------12---------------------9-7-- |---------------------------------------------------------------------- |---------------------------------------------------------------------- |---------------------------------------------------------------------- |---------------------------------------------------------- |---------------------------------------------------------- |---------------------------------7---7-9-9^^-9^^-9^^^^---- |-97-5--7p5----5h7-------5-7-7/9---9---------------------- |------------7------5h7------------------------------------ |---------------------------------------------------------- |---------------------------------------------------------- |---------------------------------------------------------- |--9^-9^^-9p7----7----------------------------------------- |-------------9------97-5-7---5-7-7^^--7^^--7^^^-5-------- |----------------------------------------------------7----- |----------------------------------------------------------

    www.rdrop.com/~mjames/sabbath/
    найти лекарство
    список лекарств






    О сайтеАккордыХит-парадПоискУроки ФорумыИщу песню
    ПрограммыСвежачок-сПодпискаСтатьи
    Яндекс.Метрика