Басовая табулатура Black Sabbath | Paranoid  (2) гитара табулатуры уроки тексты песен Black Sabbath текст lyrics песня аккорды песни ноты нота электрогитара струна  
   А Б В Г Д Е Ж З И К Л М Н О П Р С Т У Ф Х Ч Ш Ы Э Ю Я       Разные песни
1-9 A B C D E F G H I J K L M N O P Q R S T U V W Y Z      Все исполнители in english

    



группа Black Sabbath, Басовая табулатура песни Paranoid (2)

Продолжаем грести бабос на ботах в Telegram.
Только в этот раз есть вариант автоматизировать это дело, привлекая рефералов. Вы можете заработать если »

Группа: Black Sabbath - другие аккорды (243),   о группе (21 статей),   диски (20),   фотографии (152)
Басовая табулатура песни: Paranoid (2)
Просмотров: 1375
Прислал: Sabbath (sabbath54@mail.ru)




    

Paranoid - Bass
Black Sabbath - Paranoid (1970)

                                        People think I'm insane...
     ||----------------7-9-------------7-9-||---------------------------
     ||------------7-9-------------7-9-----||---------------------------
     ||--2/7--7--7---------7--7--7---------||--7-7-7-7-7-7-7-7-7-7-7-7--
     ||------------------------------------||---------------------------
                               Every so often Geezer throw this lick in.
     -------------------------|-----------------------7-9---------------
     ----------------5--------|-------------------7-9-------------------
     -5-5-5-5-5-5-5-----5--7--|-7-7-7-7-7-7-7-7-7---------5-5-5-5-5-5-5-
     -------------------------|-----------------------------------------
     ----------||--------------------5-----7----------------------------

Продолжаем грести бабос на ботах в Telegram.
Только в этот раз есть вариант автоматизировать это дело, привлекая рефералов. Вы можете заработать если »

--5-------||------------------5-----7------------------------------ -----5--7-||-7-7-7-7-7-7-7--3-----5-----7-7-7-7-7-7-7-7-7-7-7-7--3- ----------||------------------------------------------------------- ---5-----7-||---------------------------7---7---7---7---7---7---9-- -5-----7---||------------------------------------------------------ -----5-----||-7-7-7-7-7-7-7-7-7-7-7-7-5---5---5---5---5---5---7---7 -----------||------------------------------------------------------ -9---9---9---9---9---7---7---7---7---7---7-||Piece it together, it's -------------------------------------------||not a difficult song. --7---7---7---7----5---5---5---5---5---5---|| -------------------------------------------||

www.rdrop.com/~mjames/sabbath/
искать в аптеке
список лекарств






О сайтеАккордыХит-парадПоискУроки ФорумыИщу песню
ПрограммыСвежачок-сПодпискаСтатьи
Яндекс.Метрика