Табулатура Black Sabbath | Paranoid  (2) гитара табулатуры уроки тексты песен Black Sabbath текст lyrics песня аккорды песни ноты нота электрогитара струна  
   А Б В Г Д Е Ж З И К Л М Н О П Р С Т У Ф Х Ч Ш Ы Э Ю Я       Разные песни
1-9 A B C D E F G H I J K L M N O P Q R S T U V W Y Z      Все исполнители in english

    



группа Black Sabbath, Табулатура песни Paranoid (2)

Продолжаем грести бабос на ботах в Telegram.
Только в этот раз есть вариант автоматизировать это дело, привлекая рефералов. Вы можете заработать если »

Группа: Black Sabbath - другие аккорды (243),   о группе (21 статей),   диски (20),   фотографии (152)
Табулатура песни: Paranoid (2)
Просмотров: 2345
Прислал: Sabbath (sabbath54@mail.ru)




    
Paranoid
Black Sabbath - Paranoid (1970)

|----------------------------------------------------------
|----------------------------------------------------------
|----------------------------------------------------------
|------------------------------12h14-------12--------------
|-12h14--12h14--12h14---12h14--------12h14----14-----------
|-12-----12-----12-----------------------------------------
|--------------------------------------------------------------12--
|-----------------palm mute------------------------------------12--
|--------------------------------------------------------------12--
|---------------------------------------------------12-------------
|-14141414141414141414141414141414-1212121212121212-10--12--14-----
|-12121212121212121212121212121212-1010101010101010-----10--12-----
|----------------------------------------------------------
|----------------------------------------------------------
|----------------------------------------------------------
|----------------------------------------------------------
|-14---------10-----12-----14141414141414141414------------
|-12----------8-----10-----12121212121212121212and so on...
|--------------------------------------------------------------
|--------------------------------------------------------------
|-can you help me?------occupy my brain...---------------------
|--------------------------------------------------------------
|-14-------------------12------------------14--------------12--
|-12-------------------10------------------12--------------10--
Solo:
|------------------------------------------------------------
|------------------------------------------------------------
|------------------------------------------------------------
|-14^p12-14~~--14-12-14p12-----------------------------------
|--------------------------1412-10h12-10h12-------10--------
|--------------------------------------------10h12----12-12--
|--------------------------------------------------------------------
|--------------------------------------------------------------------

Продолжаем грести бабос на ботах в Telegram.
Только в этот раз есть вариант автоматизировать это дело, привлекая рефералов. Вы можете заработать если »

|--------------------------12-14-14^^^14-12h14-14^^^12-14--12-------- |------------12h14-14--/14------------------------------------14-14-- |10h12-12/14--------------------------------------------------------- |-------------------------------------------------------------------- |-----------------12-------------------15^-15^-15^^15--12-15p12----- |---------------12--15-15^--15^--15-12--------------------------15-- |------------/14---------------------------------------------------- |-12h14-14-14------------------------------------------------------- |------------------------------------------------------------------- |------------------------------------------------------------------- |-15p12----------------12---------------------------------------------- |-------15-15p12----12----15p12---------------------------------------- |----------------14^------------14-14p12----12-14^^p12---14^-12h14p12-- |----------------------------------------14---------------------------- |---------------------------------------------------------------------- |---------------------------------------------------------------------- |-------------------------------------------------------------------------- |-------------------------------------------------------------------------- |---12---------------------------------------------------12---------------- |-14---14-14p12------12------------------------12--12h14----14-12-14-12-14- |---------------14--------12-10-12p10----12/14----------------------------- |-------------------------------------12----------------------------------- at the end: |----------------------------------------------------------- |----------------------------------------------------------- |----------------------------------------------------------- |----------------------------------------------------------- |-14141414141414141414141414141414-1212121212121212-12----2- |-12121212121212121212121212121212-1010101010101010-10-3^-0-

www.rdrop.com/~mjames/sabbath/
лекарство в аптеке
список лекарств






О сайтеАккордыХит-парадПоискУроки ФорумыИщу песню
ПрограммыСвежачок-сПодпискаСтатьи
Яндекс.Метрика