Табулатура Black Sabbath | Warpigs  (2) гитара табулатуры уроки тексты песен Black Sabbath текст lyrics песня аккорды песни ноты нота электрогитара струна  
   А Б В Г Д Е Ж З И К Л М Н О П Р С Т У Ф Х Ч Ш Ы Э Ю Я       Разные песни
1-9 A B C D E F G H I J K L M N O P Q R S T U V W Y Z      Все исполнители in english

    



группа Black Sabbath, Табулатура песни Warpigs (2)

Продолжаем грести бабос на ботах в Telegram.
Только в этот раз есть вариант автоматизировать это дело, привлекая рефералов. Вы можете заработать если »

Группа: Black Sabbath - другие аккорды (243),   о группе (21 статей),   диски (20),   фотографии (152)
Табулатура песни: Warpigs (2)
Просмотров: 1316
Прислал: Sabbath (sabbath54@mail.ru)




    
Warpigs
Black Sabbath - Paranoid (1970)
                                1st time       2nd time
|-------------------------||--------------||---------------
|-------------------------||--------------||---------------
|-(7)/9--------7/9-9-----||--------------||---------------
|-(7)/9--------7/9-9-----||--------------||---------------
|-(5)/7--------5/7-75~~--||-11-11h12-11--||-11-11h12-12/14
|-------------------------||-0--0-----0---||-0--0-----0----
             1          2          3
|----------||---------||--------||--12----||
|----------||---------||--------||--12----||
|----------||-4p2p0---||--------||--12----||
|-12--14---||-------2-||-0202020||--------||
|-12--14---||---------||--------||--------|
|-10--12---||---------||--------||--------||
|-----------------------||-----||--------------------------
|-----------------------||-----||--------------------------
|-----------------------||-12~-||--------------------------
|-12-14---17-16-15---14-||-----||----121412141214----------
|-12-14---17-16-15---14-||-----||-/14----------------------
|-10-12---15-14-13---12-||-----||--------------------------
|---------12-------------------||----------------------------
|---------12-------------------||----------------------------
|---------12-------------------||----------------------------
|-------------------------------||---------2p0---------2p0----
|-------------------------------||----------------------------
|-0-0-0-0------0--0-0-3^~~~-----||-0-0-0-0-----0--0--0-----3~-

1st solo:
|-----------------------------------------------------------------------------------
|-----------------------------------------------------------------------------------
|-----------------------------------------------------------------------------------
|-----------------------------------------------------------------------------------
|11h12---12p11---117---75---5/7----7p5---5h7---7/11---11/12---12p11---11h12--12/14
|------0-------0------0-----0------------0-----0------0-------0-------0-------0-----

|----------------------------------------------12-----12-----------
|--------------------------------------------12-----12--15^-15^----
|-------------------------12----------12--14^----14^---------------
|------12h14-14------12h14-------12h14-----------------------------
|-12h14---------12h14-------12h14----------------------------------
|------------------------------------------------------------------

|-12-----------------|--------------------|----------12----15^--
|---15-12---12-15p12-|----15p12---15p12---|-15p12--12--15^------
|--------14^---------|---------14------14-|------14-------------
|--------------------|--------------------|---------------------
|--------------------|--------------------|---------------------
|--------------------|--------------------|---------------------

|-15^-15^-15^-12----|-12--12-------------|----------------------------
|----------------15-|-------15-15p12--12-|-15p12----------------------
|-------------------|---------------14---|------14-14p12--12----------
|-------------------|--------------------|--------------14---14---14--
|-------------------|--------------------|----------------------------
|-------------------|--------------------|----------------------------

|----------------------------|-----------|---------------------
|-7--7--7--7-----------------|-----------|---------------------
|-9^-9^-9^-9^-^9--7---7h9~~--|-----7h9~~-|-----7h9~~-9---7-9---
|-------------------9--------|-7h9-------|-7h9-----------------
|----------------------------|-----------|---------------------
|----------------------------|-----------|---------------------

|-----------------------------|----------------|-----------
|-----------------------------|-7--7--7--7-----|-----------
|-11r9p7h9p7h9-( x 10 )--11p9-|-9^-9^-9^-9^-^9-|-9p7-7h9~~-
|-----------------------------|----------------|-----------
|-----------------------------|----------------|-----------
|-----------------------------|----------------|-----------
|---------------------------------------------------------------
|---------------------------------------------------------------
|---------------------------------------(1/2 step)--------------
|---------------------------------------------------------------

Продолжаем грести бабос на ботах в Telegram.
Только в этот раз есть вариант автоматизировать это дело, привлекая рефералов. Вы можете заработать если »

|11h12---12p11---117---75---5/7-----6^-6^-6^-6^--( x 2 )------ |------0-------0------0-----0----------------------------------- 2nd solo: |-------------------------------------------------------- |-------------------------------------------------------- |-------7-------7---7--------7-------7---7--9-----7------ |---9-------9-----9------9-------9-----9----9--9--7------ |-7---7---7---7--------7---7---7---7--------7--9--5------ |----------------------------------------------7--------- |------------------------------------------------------- |------------------------------------------------------- |-------7-------7---7--9--12--9------------------------- |---9-------9-----9----9--12--9------------------------- |-7---7---7---7--------7--10--7------------------------- |------------------------------------------------------- |---------------------|---------------------|---------------------|-- |---------------------|---------------------|---------------------|-- |-------7-------7---7-|-------5-------5---5-|-------3-------3---3-|-- |---9-------9-----9---|---7-------7-----7---|---5-------5-----5---|-- |-7---7---7---7-------|-5---5---5---5-------|-3---3---3---3-------|-- |---------------------|---------------------|---------------------|-- |--------------|------------------------------------------------------ |--------------|------------------------------------------------------ |--------------|------------------------------------------------------ |-9---10-10-9--|-------4-5-4h5-4---4-----------4-5-7-7---9-9---------- |-9---10-10-9--|--5h7----------------5---5-5h7------------------------ |-7----8--8-7--|--0--------------------7---0-------------------------- |-------------------------------|----------|---------------- |-------------------------------|----------|-------( x 8 )-- |-4/7-7h9-9---7h9-9^-9^-9^9-7h9-|--7---7-9-|-11r9p7h9p7h9--- |-------------------------------|----9-----|---------------- |-------------------------------|----------|---------------- |-------------------------------|----------|---------------- |--------------|--------------|---------------|---------------------- |-7--7--7--7---|--------------|---------------|---------------------- |-9^-9^-9^-9^9-|-7---7h9--7p9~|--7h9~~--------|-7h9~~---------7h9~~-- |--------------|---9----------|---------7h9~~-|---------7h9~~-------- |--------------|--------------|---------------|---------------------- |--------------|--------------|---------------|---------------------- |----------|---------------|---------------------|----------------| |----------|---------------|---------------------|----------------| |-----7h9--|------7h9--7-9-|-11r9p7h9p7----------|----------------| |-7h9------|--7h9----------|------------9p7-7----|----------------| |----------|---------------|------------------10-|-10-9-7-9-1097-9| |----------|---------------|---------------------|----------------| |------------------------------|-------------------------- |------------------------------|-------------------------- |------------------------------|-------------------------- |------------------------------|--------7----------------- |-10p9p7--9--10p9p7--9--10p9p7-|-9--10------9h10p9p7--7--- |------------------------------|-------------------------- |------------------------------------------------------ |------------------------------------------------------ |------------------------------------------------------ |-------4-5-4h5-4---4-----------4-5-7-7---9-9---------- |--5h7----------------5---5-5h7------------------------ |--0--------------------7---0-------------------------- |-------------------------------------------------------- |-------------------------------------------------------- |-------7-------7---7--------7-------7---7--------------- |---9-------9-----9------9-------9-----9----------------- |-7---7---7---7--------7---7---7---7------accelerate...-- |--------------------------------------------------------

www.rdrop.com/~mjames/sabbath/
поиск лекарств
список лекарств






О сайтеАккордыХит-парадПоискУроки ФорумыИщу песню
ПрограммыСвежачок-сПодпискаСтатьи
Яндекс.Метрика