Басовая табулатура Black Sabbath | Iron Man гитара табулатуры уроки тексты песен Black Sabbath текст lyrics песня аккорды песни ноты нота электрогитара струна  
   А Б В Г Д Е Ж З И К Л М Н О П Р С Т У Ф Х Ч Ш Ы Э Ю Я       Разные песни
1-9 A B C D E F G H I J K L M N O P Q R S T U V W Y Z      Все исполнители in english

    



группа Black Sabbath, Басовая табулатура песни Iron Man

Работа в Европе для граждан РФ, Украины, СНГ

  • минимальная зарплата $500.
  • виза и контракт на полгода, возможно продление
  • проживание оплачивает работодатель
  • нужен только загранпаспорт
  • оформление 190 €
  • данное предложение - отличная возможность эмигрировать в Европу и закрепиться здесь навсегда.

  • Мы свяжемся с Вами по WhatsApp или Viber и ответим на любые вопросы.
    на нашем сайте можно почитать подробнее »

    Группа: Black Sabbath - другие аккорды (243),   о группе (21 статей),   диски (20),   фотографии (152)
    Басовая табулатура песни: Iron Man
    Просмотров: 1177
    Прислал: Sabbath (sabbath54@mail.ru)




        
    === The Eternal Idol's Black Sabbath Tablature
    === http://www.rdrop.com/~mjames/sabbath/
    from - KtuluKid@aol.com
    Iron Man - Bass
    Black Sabbath - Paranoid (1970)
    
         ||-----------------------------------------------------------------||
         ||-----------------------------------------------------------------||
         ||----7b(10)-----7b(10)-----7b(10)----7b(10)-----------------------||
         ||-----------------------------------------------------------------||
                                                       This lick goes right w/ 
         ||-------------------------------------------||----------------------
         ||-------------------------------------------||----------------------
         ||--2---5--5/7-7---10-9-10-9-10---5-5/7-7/--||--------5b(6)---------
         ||-------------------------------------------||--7--7--------7-6-5-5-
         the drum roll       No body helps him    Now he has his...
         ------------------||-------9---7--------------------------||---------
         ------7-6-7-6-7---||-----9--------9-7-5----------4--5-4---||---------
         ---7------------7-||-7------------------5------5--------5-||---------
         -5----------------||-------------------------7------------||--7-7--7-
                             Pre solo                       solo
         ------------------||------------------------------||-----------------
         ------------7-8-9-||--11-9------------------------||-----------------
         -5-7--7-8-9-------||--------11-10-9-7-------------||-----------------
         ------------------||------------------7-7-7-9-9-9-||--9-9-9-9-9-7h9-9
    
         ---------------------------------------------------------------------
         ---------------------------------9-11-11-11-11-11-9h11-11-11-11-11-9h
         ----------------------7---7-9-11-------------------------------------
         -9-9-9-7h9-9-9-9-97h9---9--------------------------------------------
    
         ----12-11-9--------------------------------------------9-------------
         -11---------12-11-9-11-11-11-11-119h11-11-11-11-119h11---11-9-7------
         ----------------------------------------------------------------11-9-
    
    Узнай ВСЕ о своем друге в ВК или FB
    --------------------------------------------------------------------- --------------------------------------------------------------||----- ------------------------------9h11--9h11--9h11---9h11-9h11-11-||-11-9 -7------------------------------------------------------------||----- ---7h9--7h9--7h9---7h9-7h9-9----------------------------------||----- outro (time to use the steve harris hand) -----------------------||-------------------------------------------- -----------------------||-------------------------------------------- -11-10-9-7-------------||-7-7-7-7-7-7-7-7-7-7-7-7-7-7-7-7-7-7-7-7-7-7 -----------7-7-7-9-9-9-||-------------------------------------------- Do this while guitar does E bend. When guitar does riff do this ---------------------------------|----------------------------------- ---------------------------------|----------------------------------- -7-7-7-7-7-7-7-7-7-7-7-7-7-7-7-7-|7-5-7-7-7-7-7-7-7-5-3-5-5-5-5-5-5-5 ---------------------------------|----------------------------------- Geezer does different endings for this riff ------------------|---------------------|h=hammer-on ------------------|---------------------|/-slide up -3-2-3-3-3-3-3-3-3|-2-2-2-2-2-2-2-2-2-2-|slide down ------------------|---------------------|b=bend ( )=note bend to here are some of the licks Geezer does |-----------------|---------------------|-------------------|| |-----------------|---------------------|-------------------|| |-2-3-2---2-3-5---|-2-3-2-------3-5-----|-2-3-2-3-2-3-5-----|| |-------3---------|--------3-5----------|-------------------||

    www.rdrop.com/~mjames/sabbath/
    найти лекарство
    список лекарств






    О сайтеАккордыХит-парадПоискУроки ФорумыИщу песню
    ПрограммыСвежачок-сПодпискаСтатьи
    Яндекс.Метрика