Басовая табулатура W.A.S.P. | The Real Me гитара табулатуры уроки тексты песен W.A.S.P. текст lyrics песня аккорды песни ноты нота электрогитара струна  
   А Б В Г Д Е Ж З И К Л М Н О П Р С Т У Ф Х Ч Ш Ы Э Ю Я       Разные песни
1-9 A B C D E F G H I J K L M N O P Q R S T U V W Y Z      Все исполнители

    



группа W.A.S.P., Басовая табулатура песни The Real Me

Группа: W.A.S.P. - другие аккорды (67),   о группе (12 статей),   диски (23),   фотографии (38)
Басовая табулатура песни: The Real Me
Просмотров: 1681
Подобрал: Judas (killer@bk.ru)




    
#----------------------------------PLEASE NOTE---------------------------------#
#This file is the author's own work and represents their interpretation of the #
#song. You may only use this file for private study, scholarship, or research. #
#------------------------------------------------------------------------------##
Author/Artist: The Who (Cover by W.A.S.P.)
Title: The Real Me
Album: The Headless Children
Type: Bass Tablature
Transcribed by: Scott Evans
Email: gse@ocsystems.com
#------------------------------------------------------------------------------#
#- Distributed by the site Chainsaw Charlie - http://wasptabs.planetaclix.pt  -#
#------------------------------------------------------------------------------#
From: gse@ocsystems.com (Scott Evans)
Subject: BTAB: The Who, "The Real Me"
Here ya go.  I haven't played through this in some time, so I'm not 100%
sure it's all right, but if I remember right it is.

 ------------------------------------------------------------------------------
 scott evans                                                  gse@ocsystems.com
 -----------------------------self is the universe-----------------------------

                                  The Real Me
                                    The Who
                                                 bass transcription: Scott Evans
Tunning (added by Artur Capela): 1/2 step down
1-Gb
2-Db
3-Ab
4-Eb

                                                                                
17-------------|------17/20--|---------15--15--17--|---------------8------10----
----15h17------|--17---------|--15/17--------------|--------8---------10--------
-----------15--|-------------|---------------------|--8h10-----10---------------
---------------|-------------|---------------------|----------------------------
                                                                                
                                   verse                                        
----12--10--15--12--17--15------|----------------------------------|------------
10--------------------------17--|----------------------------------|------------
--------------------------------|---------------------1--3h6--3/8--|------------
--------------------------------|---0--1--1--2--2--3---------------|--0--1------
                                                                                
                                                                                
-----------------------|-------------------8------10--8--|--10--12--10----------
-----------------------|-----------10--10-----10---------|--------------12------
------------1--3/6/10--|---------------------------------|----------------------
1--2--2--3-------------|--8--8--8------------------------|----------------------
                                                                                
                 chorus                                                         
--------------|---------------------------|-----------------|-----------5--|----
10--8---------|---------------------------|-----------------|--------------|----
-------10--8--|---3--3--3--3-----6--5--3--|--3-----6--5--3--|--3--3--3-----|----
--------------|---------------3-----------|-----3-----------|--------------|----
                                                                                
                                                      verse feel                
---------------------|-----------------5--5--5--5--|---------|------------------
---------------------|-----------------------------|---------|------------------
3--3-----3--6--5--3--|-----3--6--5--3--------------|---3/15--|------------------
------3--------------|--3--------------------------|---------|--0--1--1--2------
                                                                                
                                     verse                                      

Продолжаем грести бабос на ботах в Telegram.
Только в этот раз есть вариант автоматизировать это дело, привлекая рефералов. Вы можете заработать если »

---------|--15--17---------15-----|---------------------------|----------------- ---------|----------15h17---------|---------------------------|--10--10--10----- ---1/3/6/|---------------------15/|------------------------3--|----------------- 2--------|------------------------|---0--1--1--2--2--3--3-----|----------------- chorus ----|--------------------------------|-----------------------|------------------ 10--|--------------------------1-----|-----------------------|------------------ ----|-----------------1-----3-----3--|-----------------------|---3--3--3--3----- ----|--0--1--2--3--3-----3-----------|--0--1--1--2--2--3--3--|------------------ ------------|-----5--5--5/17--17--17--17--17--|------17------17---------15------ ------------|---------------------------------|----------17------15h17---------- ---6--5--3--|--3------------------------------|--15----------------------------- 3-----------|---------------------------------|--------------------------------- cool part ----|--17----------15----------|------------------------------------------------ 17--|------15--17------17--15--|------------------------------------------------ ----|--------------------------|---3--3--3-----------------------------1--1----- ----|--------------------------|------------0--0--1--1--1--2--2--3--3----------- -------------------------------|-------------------------------8------10--8----- 1-----3-----5--3--8--3--10--8--|-----------10--10--10--10--10-----10------------ ---3-----3---------------------|------------------------------------------------ -------------------------------|--8--8--8--------------------------------------- /12--10-------------------|--15--17-------------|--15--17--20--2017--|--------- ---------10--12--8--8/10--|----------15h17------|---------------------|--15----- --------------------------|-----------------15--|---------------------|--------- --------------------------|---------------------|---------------------|--------- -----15--17--15------------------------------|--------------------------|--3---- /17--------------17--16--15------------------|--------------------------|------- -----------------------------18--15--13--15--|--------------0--1--2--3--|------- ---------------------------------------------|--0--1--1--2--------------|------- 5--3--------------------|-----------------------------------------------------|| ------5--4--3-----------|-----------------------------------------------------|| ---------------6-----3--|-----------------------------------------------------|| ------------------6-----|--0--0--1--1--2--2--3--3--4--4--1--1--2--2--3--3-----|| ================================================================================ == Created with the BUCKET 'O TAB tablature creation software == == For more information: == == email: gse@ocsystems.com == == US Mail: The Bucket, 3176-B5 Summit Square Dr., Oakton, VA 22124 == ================================================================================








О сайтеАккордыХит-парадПоискУроки ФорумыИщу песню
ПрограммыСвежачок-сПодпискаСтатьи
Яндекс.Метрика