Табулатура W.A.S.P. | Maneater гитара табулатуры уроки тексты песен W.A.S.P. текст lyrics песня аккорды песни ноты нота электрогитара струна  
   А Б В Г Д Е Ж З И К Л М Н О П Р С Т У Ф Х Ч Ш Ы Э Ю Я       Разные песни
1-9 A B C D E F G H I J K L M N O P Q R S T U V W Y Z      Все исполнители

    



группа W.A.S.P., Табулатура песни Maneater

Группа: W.A.S.P. - другие аккорды (67),   о группе (12 статей),   диски (23),   фотографии (38)
Табулатура песни: Maneater
Просмотров: 1497
Подобрал: Judas (killer@bk.ru)




    
#----------------------------------PLEASE NOTE---------------------------------#
#This file is the author's own work and represents their interpretation of the #
#song. You may only use this file for private study, scholarship, or research. #
#------------------------------------------------------------------------------##
Author/Artist: W.A.S.P.
Title: Maneater
Album: The Headless Children
Type: Guitar Tablature
Transcribed by: ANDREAS ЦHRN
Email: eva.ohrn@telia.com
#------------------------------------------------------------------------------#
#- Distributed by the site Chainsaw Charlie - http://wasptabs.planetaclix.pt  -#
#------------------------------------------------------------------------------#
MANEATER
FROM THE HEADLESS CHILDREN ALBUM
BY W.A.S.P.
TABBED BY ANDREAS ЦHRN
NOTE: TUNE GUITAR DOWN TO Eb
INTRO:
RIFF A  X 4                    RIFF B  X 4
E|----------------------------|----------------------------|
B|----------------------------|----------------------------|
G|----------------------------|----------------------------|
D|---2--2--2-------2/0--------|---2--2--2-----------0-2----|
A|---2--2--2-----------2/0----|---2--2--2-------0-2--------|
E|---0--0--0-0-0-0------------|---0--0--0-0-0-0------------|
VERSE:
E|----------------------------------------------------------------------------------|
B|----------------------------------------------------------------------------------|
G|---------------------------------------------7------------------------------------|
D|---9--9--9--------------9--9--9--------------7--9--9--9-------------9--9--9-------|
A|---7--7--7--------------7--7--7--------------5--7--7--7-------------7--7--7-------|
E|---0--0--0-0-0-0-0-0-0--0--0--0-0-0-0-0-0-0-----0--0--0-0-0-0-0-0-0-0--0--0-0-0-0-|
            | P.M...... |        | P.M...... |           | P.M...... |       | P.M..
E|------------------------------------------|
B|------------------------------------------|
G|-------------------------------7--7-------|
D|----------9--9--9--------------7--7--9----|
A|----------7--7--7--------------5--5--7----|
E|---0-0-0--0--0--0-0-0-0-0-0-0--------0----|
    ..... |        | P.M...... |
BRIDGE:
E|------------------------------------------|---------------------------------------|
B|------------------------------------------|-------------------------------5-5-5-7-|
G|------------------------------------------|-------------------5-5-5-7-7-7---------|
D|---5--7--9---7--7--9---5--7--9---5--7--4--|-4-4-4-6-6-6-7-7-7---------------------|
A|---3--5--7---7--5--7---3--5--7---3--5--2--| GUITAR 2 PLAYS THIS ON THE LAST B CHORD
E|-------------5----------------------------|---------------------------------------|
CHORUS:  X 2
E|----------------------------------------------------------------------------------|
B|----------------------------------------------------------------------------------|
G|----------------------------------------------------------------------------------|
D|---2--2--2---------------2--2--2---------------2--2--2---------------2--2--2------|

Продолжаем грести бабос на ботах в Telegram.
Только в этот раз есть вариант автоматизировать это дело, привлекая рефералов. Вы можете заработать если »

A|---2--2--2------0--------2--2--2------0--------2--2--2------0--------2--2--2------| E|---0--0--0--0-0---3-2-0--0--0--0--0-0---3-2-0--0--0--0--0-0---3-2-0--0--0--0--0-0-| |P.M| |P.M| |P.M| |P.M| E|--------------------| B|--------------------| G|------------5--7----| D|------------5--7----| A|---0--------3--5----| E|-----3-2-0----------| RIFF A X 2 VERSE: SAME AS ABOVE BRIDGE: SAME AS ABOVE CHORUS: SAME AS ABOVE SOLO: E|-------------| B|-------------| G|---4----4----| D|---4----4----| A|---2----2----| E|-------------| BRIDGE: E|----------|----------------------------------------------| B|----------|--- PLAY THIS PART 2 TIMES -------------------| G|--4----4--|----5--7--7--5------------5--7--7--5----------| D|--4----4--|-7--3--5--5--3--7--5---7--3--5--5--3--7--5----| A|--2----2--|-5--------------5--3---5--------------5--3----| E|----------|----------------------------------------------| SOLO: E|----------------------------------------------------------------------------------| B|----------------------------------------------------------------------------------| G|-----7--9--9--7------------7--9--9--7------------7--9--9--7------------7--9--9--7-| D|--9--5--7--7--5--9--7---9--5--7--7--5--9--7---9--5--7--7--5--9--7---9--5--7--7--5-| A|--7--------------7--5---7--------------7--5---7--------------7--5---7-------------| E|----------------------------------------------------------------------------------| E|-------------------------| B|-------------------------| G|----------4----4----4----| D|---9--7---4----4----4----| A|---7--5---2----2----2----| E|-------------------------| CHORUS: SAME AS ABOVE OUTRO: E|------------------------------------------------| B|------------------------------------------------| G|---5--7------5--7------5--7------5----7---------| D|---5--7--9---5--7--9---5--7--9---5----7----9----| A|---3--5--7---3--5--7---3--5--7---3----5----7----| E|---------0---------0---------0-------------0----|








О сайтеАккордыХит-парадПоискУроки ФорумыИщу песню
ПрограммыСвежачок-сПодпискаСтатьи
Яндекс.Метрика