Табулатура W.A.S.P. | The Neutron Bomber гитара табулатуры уроки тексты песен W.A.S.P. текст lyrics песня аккорды песни ноты нота электрогитара струна  
   А Б В Г Д Е Ж З И К Л М Н О П Р С Т У Ф Х Ч Ш Ы Э Ю Я       Разные песни
1-9 A B C D E F G H I J K L M N O P Q R S T U V W Y Z      Все исполнители

    



группа W.A.S.P., Табулатура песни The Neutron Bomber

Группа: W.A.S.P. - другие аккорды (67),   о группе (12 статей),   диски (23),   фотографии (38)
Табулатура песни: The Neutron Bomber
Просмотров: 1236
Подобрал: Judas (killer@bk.ru)




    
#----------------------------------PLEASE NOTE---------------------------------#
#This file is the author's own work and represents their interpretation of the #
#song. You may only use this file for private study, scholarship, or research. #
#------------------------------------------------------------------------------##
Author/Artist: W.A.S.P.
Title: The Neutron Bomber
Album: The Headless Children
Type: Guitar Tablature
Transcribed by: ANDREAS ЦHRN
Email: eva.ohrn@telia.com
#------------------------------------------------------------------------------#
#- Distributed by the site Chainsaw Charlie - http://wasptabs.planetaclix.pt  -#
#------------------------------------------------------------------------------#
THE NEUTRON BOMBER
FROM THE HEADLESS CHILDREN ALBUM
BY W.A.S.P.
TABBED BY ANDREAS ЦHRN
NOTE: TUNE DOWN TO Eb
INTRO:
RIFF A
E|-------------------------------------------------------------------|
B|-------------------------------------------------------------------|
G|---9-9-9-9--9-9-9-9--5-4-2-4-2-7--9-9-9-9--9-9-9-9--5-4-2-4-5-7----|  X 2
D|---9-9-9-9--9-9-9-9--5-4-2-4-2-7--9-9-9-9--9-9-9-9--5-4-2-4-5-7----|
A|---7-7-7-7--7-7-7-7--3-2-0-2-0-5--7-7-7-7--7-7-7-7--3-2-0-2-3-5----|
E|-------------------------------------------------------------------|
RIFF B
E|---------------------------|
B|---------------------------|
G|---9--------5-4-2-4-2-7----|  X 4
D|---9--5--7--5-4-2-4-2-7----|
A|---7--5--7--3-2-0-2-0-5----|
E|------3--5-----------------|
VERSE:
E|---------------------------------------------------------------------------------|
B|---------------------------------------------------------------------------------|
G|---9-----------------------------------------------------------------------------|
D|---9-----------------------------------------------------------------------------|
A|---7-7-7-7-7-7-7-7-7-7-7-7-7-7-7-7-7-7-7-7-7-7-7-7-7-7-7-7-7-7-7-7-7-7-7-7-7-7-7-|
E|---------------------------------------------------------------------------------|
      | P.M.................. ALL
E|---------------------------------------------------------------------------------|
B|---------------------------------------------------------------------------------|
G|---------------------------------------------------------------------------------|
D|---------------------------------------------------------------------------------|
A|---5-5-5-5-5-5-5-5-5-5-5-5-5-5-5-5-3-3-3-3-3-3-3-3-3-3-3-3-3-3-5-5-5-5-5-5-5-5-5-|
E|---------------------------------------------------------------------------------|
    .......................... ALL
E|----------------|
B|----------------|
G|----------------|
D|----------------|
A|---5-5-5-5-5----|
E|----------------|
    ...........|
CHORUS:
E|---------------------------------------------------------------------------------|
B|---------------------------------------------------------------------------------|
G|------------5-4-2-4-2-7-----------5-4-2-4-2-7-----------5-4-2-4-2-7-----------4-2|
D|---2--5--7--5-4-2-4-2-7--2--5--7--5-4-2-4-2-7--2--5--7--5-4-2-4-2-7--2--5--7-----|
A|---2--5--7--3-2-0-2-0-5--2--5--7--3-2-0-2-0-5--2--5--7--3-2-0-2-0-5--2--5--7-----|
E|---0--3--5---------------0--3--5---------------0--3--5---------------0--3--5-----|
E|-------------------------------|
B|-------------------------------|

Продолжаем грести бабос на ботах в Telegram.
Только в этот раз есть вариант автоматизировать это дело, привлекая рефералов. Вы можете заработать если »

G|-----2-----------------9--9----| D|---5---5-4-5-4-2-4-2---9--9----| A|---------------------5-7--7----| E|-------------------------------| VERSE: SAME AS ABOVE CHORUS: SAME AS ABOVE SOLO: E|----------------------------------------------------------------------------------| B|----------------------------------------------------------------------------------| G|----------------------------------------------------------------------------------| D|---------------------------------------------------5-2----------------------------| A|---------------------------------------------------5-2----------------------------| E|---2-2-2-2-2-2-2-2-2-2-2-2-2-2-2-2-2-2-2-2-2-2-2-2-3-0-2-2-2-2-2-2-2-2-2-2-2-2-2-2| | P.M.......................................... | | P.M....................... E|----------------------------------------------------------------------------------| B|----------------------------------------------------------------------------------| G|----------------------------------------------------------------------------------| D|---------------------------------------4------------------------------------------| A|---------------------------------------4------------------------------------------| E|---2-2-2-2-2-2-2-2-2-2-2-2-2-2-2-2-2-2-2-2-2-2-2-2-2-2-2-2-2-2-2-2-2-2-2-2-2-2-2-2| E|----------------------------------------------------------------------------------| B|----------------------------------------------------------------------------------| G|----------------------------------------------------------------------------------| D|-------5-2---------------------------------4--------------------------------------| A|-------5-2---------------------------------4--------------------------------------| E|---2-2-3-0-2-2-2-2-2-2-2-2-2-2-2-2-2-2-2-2-2-2-2-2-2-2-2-2-2-2-2-2-2-2-2-2-2-2-2-2| ....| | P.M.......................... | | P.M................................. E|----------------------------------------------------------------------------------| B|----------------------------------------------------------------------------------| G|-------------------------------------------------------------------9--------------| D|-------------5-2-5-------------------------------------------------9--------------| A|-------------5-2-5-------------------------------------------------7--------------| E|---2-2-2-2-2-3-0-3-2-2-2-2-2-2-2-2-2-2-2-2-2-2-2-2-2-2-2-2-2-2-2-2---2-2-2-2-2-2-2| ......... | | P.M.......................................... | | P.M......... E|----------------------------------------------------------------------------------| B|----------------------------------------------------------------------------------| G|----------------------------------------------------------------------------------| D|-------------------------------------5-2-5-4--------------------------------------| A|-------------------------------------5-2-5-4--------------------------------------| E|---2-2-2-2-2-2-2-2-2-2-2-2-2-2-2-2-2-3-0-3-2-2-2-2-2-2-2-2-2-2-2-2-2-2-2-2-2-2-2-2| ................................. | | P.M................................. E|------------------------------------------------------------------------| B|------------------------------------------------------------------------| G|-------------------------2----2----2----2-------------------------------| D|-------------------------2-4--2-4--2-4--2-4--4-4-4-4-4-4-4-4-4-4-4-4----| A|-------------------------0-4--0-4--0-4--0-4--4-4-4-4-4-4-4-4-4-4-4-4----| E|---2-2-2-2-2-2-2-2-2-2-2---2----2----2----2--2-2-2-2-2-2-2-2-2-2-2-2----| ..................... | RIFF A: X 2 RIFF B: X 2 CHORUS: SAME AS ABOVE OUTRO: E|------------------------| B|------------------------| G|---5--7--12--9--7--9----| D|---5--7--12--9--7--9----| A|---3--5--10--7--5--7----| E|------------------------|








О сайтеАккордыХит-парадПоискУроки ФорумыИщу песню
ПрограммыСвежачок-сПодпискаСтатьи
Яндекс.Метрика