Табулатура W.A.S.P. | Mean Man  (2) гитара табулатуры уроки тексты песен W.A.S.P. текст lyrics песня аккорды песни ноты нота электрогитара струна  
   А Б В Г Д Е Ж З И К Л М Н О П Р С Т У Ф Х Ч Ш Ы Э Ю Я       Разные песни
1-9 A B C D E F G H I J K L M N O P Q R S T U V W Y Z      Все исполнители

    



группа W.A.S.P., Табулатура песни Mean Man (2)

Группа: W.A.S.P. - другие аккорды (67),   о группе (12 статей),   диски (23),   фотографии (38)
Табулатура песни: Mean Man (2)
Просмотров: 1496
Подобрал: Judas (killer@bk.ru)




    
#----------------------------------PLEASE NOTE---------------------------------#
#This file is the author's own work and represents their interpretation of the #
#song. You may only use this file for private study, scholarship, or research. #
#------------------------------------------------------------------------------#
Author/Artist: W.A.S.P.
Title: Mean Man
Album: The Headless Children
Type: Guitar Tablature
Transcribed by: Martin Karlsson
Email: gibson_sg61@hotmail.com
#------------------------------------------------------------------------------#
#- Distributed by the site Chainsaw Charlie - http://wasptabs.planetaclix.pt  -#
#------------------------------------------------------------------------------#
Original source for this tablature: http://medlem.tripodnet.nu/Killahead/

Song:		Mean man
Performer:	W.A.S.P.
Album: 		The headless children (1989)
Tab written by: Martin Karlsson (gibson_sg61@hotmail.com). 
Comments, questions but most important, corrections are welcomed
It looks like I tabed this one in standard tuning. W.A.S.P. always plays
tuned down Ѕ step. But it works anyway and that's most important, right?
I don't know if it is like this, it's kinda hard to play it. You can try to play
only the higher notes in the '5 chords, for example the first chord: Bb (x88xxx) and
so on, if you think it sounds ok.
Intro				
Fig 1				Fig 2
  Bb A G      Bb G  F G F G Bb     A G F  C    Bb  C     Bb  C          Bb  C
e:-----------------------------|------------------------------------------------|
B:-----------------------------|------------------------------------------------|
G:-----------------------------|------------------------------------------------|
D:-----------------------------|----------5--5--3--5----------------------------|
A:-8-7-5--5-5--8-5--3-5-3-5-8--|-8-7-5-3--3--3--1--3--6-5-8--10--10--10--8--10--|
E:-6-5-3--3-3--6-3--1-3-1-3-6--|-6-5-3-1------------------6--8---8---8---6--8---|
Verse                                                          
Fig 3
   G		Bb G   F		 C
e:-------------------|-----------------|-----------------|
B:-------------------|-----------------|-----------------|
G:-------------------|-----------------|-----------------|
D:--------------3--5-|-----------------|-5-5-5-5-5-5-5-5-|
A:-5-5-5-5-5-5--3--5-|-3-3-3-3-3-3-3-3-|-3-3-3-3-3-3-3-3-|
E:-3-3-3-3-3-3--1--3-|-1-1-1-1-1-1-1-1-|-----------------|
  2x-----------------| 2x--------------| 2x--------------|
Pre-chorus
Fig 4
   Bb  C   G   Bb  G   Bb  G   Bb  G    Bb  C   D   
e:------------------------------------|------------|
B:------------------------------------|------------|
G:-3---5------------------------------|-3---5---7--|
D:-3---5---5---8---5---8---5---8---5--|-3---5---7--|
A:-1---3---5---8---5---8---5---8---5--|-1---3---5--|
E:---------3---6---3---6---3---6---3--|------------|
                                                     
Bridge
Fig 5						During solo	
	       Part 1	   Part 2		Fig 6
   A   	        C   B  A    A    E  G   A         B
e:------------|-----------|-------------------| |------------------|
B:------------|-----------|-------------------| |------------------|
G:------------|-----------|-------------------| |------------------|
D:------------|-10--9--7--|------2--5---7--7--| |-------------7--9-|
A:-7--7--7--7-|-10--9--7--|-7-7--2--5---7--7--| |-9--9--9--9--7--9-|
E:-5--5--5--5-|-8---7--5--|-5-5--0--3---5--5--| |-7--7--7--7--5--7-|
   
Riff like this:
Intro:
Fig 1 6x
Fig 2
Fig 1 2x
Fig 2
Verse:

Продолжаем грести бабос на ботах в Telegram.
Только в этот раз есть вариант автоматизировать это дело, привлекая рефералов. Вы можете заработать если »

Fig 3 2x Pre-chorus: Fig 4 Chorus: Fig 1 2x Fig 2 Fig 1 2x Fig 2 Verse: Fig 3 2x Pre-chorus: Fig 4 Chorus: Fig 1 2x Fig 2 Fig 1 2x Fig 2 Bridge: Fig 5 (part 1, part2, part1, part 2...) Solo: Fig 6 Chorus: Fig 1 2x Fig 2 Fig 1 2x Fig 2 Fig 1 Lyrics: A tatooed madman, I am hell on wheels Born a wicked child left alone in the fields My father was the wind, my mother was fire Raised by the wolves and I grew up wild A kamakazi man, a hollering 'Banzai' Never crash and burn, never gonna die Cannibal it's me, you squeal and shout I chew you up and spit you out Storms a c-c-coming and it's gonna be me Here comes Trouble with a capital "T" 'Cause I'm a mean mother fucking man, I gotta scream, that's what I am All the way, all the way 'Cause I'm a mean mother fucking man, Riding the wind and know I'll be damned All they way, all the way, all the way Chewbacca in the rye, the water of fire A terror in the flesh, a killer for hire California man I'm white line, "Homer" The unruly one they call the "Blond Bomber" Scooter gypsy, I'm a renegade An orphan of the road, a live hand greande Never gonna quit before my time When the moon gets high then I'll be blind Mad dog 20-20's king I drink that stuff and start getting obscene 'Cause I'm a mean mother fucking man, I gotta scream, that's what I am All the way, all the way 'Cause I'm a mean mother fucking man, Riding the wind and know I'll be damned I'm a motorcycle man Don't never give a damn I lie when the truth serves better The Marquis de Sade, I cheat and steal and rob A heavy metal creature All the way, all the way, all the way 'Cause I'm a mean mother fucking man, I gotta scream, that's what I am All the way, all the way 'Cause I'm a mean mother fucking man, Riding the wind and know I'll be damned All they way, all the way, all the way








О сайтеАккордыХит-парадПоискУроки ФорумыИщу песню
ПрограммыСвежачок-сПодпискаСтатьи
Яндекс.Метрика