Табулатура W.A.S.P. | Thunderhead  (2) гитара табулатуры уроки тексты песен W.A.S.P. текст lyrics песня аккорды песни ноты нота электрогитара струна  
   А Б В Г Д Е Ж З И К Л М Н О П Р С Т У Ф Х Ч Ш Ы Э Ю Я       Разные песни
1-9 A B C D E F G H I J K L M N O P Q R S T U V W Y Z      Все исполнители

    



группа W.A.S.P., Табулатура песни Thunderhead (2)

Группа: W.A.S.P. - другие аккорды (67),   о группе (12 статей),   диски (23),   фотографии (38)
Табулатура песни: Thunderhead (2)
Просмотров: 1329
Подобрал: Judas (killer@bk.ru)




    
#----------------------------------PLEASE NOTE---------------------------------#
#This file is the author's own work and represents their interpretation of the #
#song. You may only use this file for private study, scholarship, or research. #
#------------------------------------------------------------------------------#
Author/Artist: W.A.S.P.
Title: Thunderhead
Album: The Headless Children
Type: Guitar Tablature
Transcribed by: Martin Karlsson
Email: gibson_sg61@hotmail.com
#------------------------------------------------------------------------------#
#- Distributed by the site Chainsaw Charlie - http://wasptabs.planetaclix.pt  -#
#------------------------------------------------------------------------------#
Original source for this tablature: http://medlem.tripodnet.nu/Killahead/

Song: 		Thunderhead
Performer:	W.A.S.P.
Album: 		The headless children (1989)
Tab written by: Martin Karlsson (gibson_sg61@hotmail.com). 
Comments, questions but most important, corrections are welcomed
Tune down Ѕ step (one fret)
The order of the tabs ain't right, but that should'nt be a problem.  
There's a lot of chords down in the Riff like this section, don't forget those.
And for the piano intro, ask someone else...
Intro					Verse
Fig 1           End 1       End 2	Fig 3
			     D  Db E				A   B   E   A F#
e:-------------|-----------|----------|-------------------------------------------|
B:-------------|-----------|----------|-------------------------------------------|
G:-------------|-----------|-7--6--9--|-------------------------2---4-------2-----|
D:-------------|-----------|-7--6--9--|-------------------------2---4---2---2-4---|
A:-------------|-----------|-5--4--7--|-------------------------0---2---2---0-4---|
E:-0-2-2-2-2-2-|-0-2-5--0--|----------|-0-2-2-2-2-2-0-2-2-2-2-2---------0-----2---|
   3x----------|                        P.M....................
					4x.....................|
Chorus
Fig 4					  End	Fill 1			 2:nd ending
   A  E  F#	     A  F#    A       B   F#				  F#
e:-----------------|--------|-----------------|-------------------------|-----|
B:-----------------|--------|-----------------|-------------------------|-----|
G:-2---------------|-2------|-2---2---4-------|-------------------------|-----|
D:-2--2--4---------|-2--4---|-2---2---4---4---|-4-2-0-4-2-0-0-----------|-4---|
A:-0--2--4---------|-0--4---|-0---0---2---4---|---------------4-2-4-2-0-|-4---|
E:----0--2-2-2-2-2-|----2---|-------------2---|-------------------------|-2---|
  3x---------------|

			Intro solo
Bass riff		Riff 1
		      e:----------------------------|---------------|
    		      B:----------------------------|---------------|
G:---------------------|------------------------9---|-9-8-9--11-9-8-|
D:---------------------|-11-11-11-11-11-11-9-11---9-|---------------|
A:-----------------5-0-|----------------------------|---------------|
E:-7-7-7-7-7-7-5-7-----|----------------------------|---------------|
			3---------------------------|
Bridge
Fig 5
   G#		   B  C#   D C#   D C# B  
e:----------------------------------------|
B:----------------------------------------|
G:----------------------------------------|
D:-6--6------------4--6--6/7/6--6/7/6--4--|
A:-6--6------------2--4--4/5/4--4/5/4--2--|
E:-4--4-4-4-4-4-4-------------------------|
        P.M......
Riff like this:
Intro:
Fig 1, end 1
Fig 1, end 2
Fig 1, end 1
Fig 1, end 2

Продолжаем грести бабос на ботах в Telegram.
Только в этот раз есть вариант автоматизировать это дело, привлекая рефералов. Вы можете заработать если »

Fig 2: (F# A B D E) 2x w/Bass riff Fig 2 2x w/Riff 1 Verse: Fig 3 2x Chorus: Fig 4 w/Fill 1 Fig 4 w/Fill 1 Verse: Fig 3 2x Chorus: Fig 4 w/Fill 1 Fig 4 w/Fill 1 Bridge: Fig 5 6x Fig 6: (G# B F C#) 2x During the conversation: Bass playes G# End of solo: Fig 7: (G# G# F# E) End 1: F# G# End 2: G# Eb Chorus: Fig 8: ((B F# G#)3x B G#, B C#)2x End of song: G# F# E Eb B Bb F# G# Lyrics: Oh Thunderhead, you're a man with a problem Ah old habits too hard to break And soon you'll be dead from that poison that you're on Oh the venom that's worse than the snakes And I say, hey hey hey, oh no, hey hey hey Oh no, hey hey hey: white thunder Needles and pins a dead man you're in So deep you'll never climb out Hey hey hey, oh no, hey hey hey Oh no, hey hey hey: white thunder A gun to your dead, the trigger you're dead It's quicker and their ain't no doubt Oh thunderhead, tie it off, you're in heaven Oh you'll drown in the Heroin flood And die in your bed and sweat in detox You're leaving this world Oh your epitaph's written in blood And I said hey hey hey, oh no, hey hey hey Oh no, hey hey hey: white thunder Needles and pins a dead man you're in So deep you'll never climb out Hey hey hey, oh no, hey hey hey Oh no, hey hey hey: white thunder A gun to your dead, the trigger you're dead It's quicker and their ain't no doubt Killer- ya sceam and ya bleed Thriller- you spread your disease Watch out, watch out Thunder head - yes I'm your master Will you steal for me - yes Will you ruin yourself and give everything unto me- yes Will you lie, cheat, deceive, dishonor everything And even kill thy brother for me - yes, yes Will you worship only me as your true master - yes Thunderhead, will you die for me - yes master Hey hey hey, oh no, hey hey hey Oh no, hey hey hey: white thunder Needles and pins a dead man you're in So deep you'll never climb out Hey hey hey, oh no, hey hey hey Oh no, hey hey hey: white thunder A gun to your dead, the trigger you're dead It's quicker and their ain't no doubt








О сайтеАккордыХит-парадПоискУроки ФорумыИщу песню
ПрограммыСвежачок-сПодпискаСтатьи
Яндекс.Метрика