Табулатура W.A.S.P. | Thunderhead гитара табулатуры уроки тексты песен W.A.S.P. текст lyrics песня аккорды песни ноты нота электрогитара струна  
   А Б В Г Д Е Ж З И К Л М Н О П Р С Т У Ф Х Ч Ш Ы Э Ю Я       Разные песни
1-9 A B C D E F G H I J K L M N O P Q R S T U V W Y Z      Все исполнители

    



группа W.A.S.P., Табулатура песни Thunderhead

Группа: W.A.S.P. - другие аккорды (67),   о группе (12 статей),   диски (23),   фотографии (38)
Табулатура песни: Thunderhead
Просмотров: 835
Подобрал: Judas (killer@bk.ru)




    
#----------------------------------PLEASE NOTE---------------------------------#
#This file is the author's own work and represents their interpretation of the #
#song. You may only use this file for private study, scholarship, or research. #
#------------------------------------------------------------------------------##
Author/Artist: W.A.S.P.
Title: Thunderhead
Album: The Headless Children
Type: Guitar Tablature
Transcribed by: ANDREAS ЦHRN
Email: eva.ohrn@telia.com
#------------------------------------------------------------------------------#
#- Distributed by the site Chainsaw Charlie - http://wasptabs.planetaclix.pt  -#
#------------------------------------------------------------------------------#
THUNDERHEAD
FROM THE HEADLESS CHILDREN ALBUM
BY W.A.S.P.
TABBED BY ANDREAS ЦHRN
NOTE: TUNE GUITAR DOWN TO Eb
INTRO:
GUITAR 1  X 4
E|---------------------------------------------------------|
B|---------------------------------------------------------|
G|---------------------------------------------------------|
D|---------------------------------------------------------|
A|---------------------------------------------------------|
E|---0-2-2-2-2-2--0-2-2-2-2-2--0-2-2-2-2-2--0-2-2-2-5-0----|
   | P.M............................................... |
GUITAR 2
E|-------------------------------------------------------------------------------|
B|-------------------------------------------------------------------------------|
G|---7--6--9---7--6--9--11--------7--9--11--------7--9--11--------7--9--11-------|
D|---7--6--9---7--6--9--11--7--9--7--9--11--7--9--7--9--11--7--9--7--9--11--7----|
A|---5--4--7---5--4--7---9--7--9--5--7--9---7--9--5--7---9--7--9--5--7---9--7----|
E|--------------------------5--7------------5--7------------5--7------------5----|
E|------------------|
B|------------------|
G|------7--9--11----|
D|---5--7--9--11----|
A|---5--5--7---9----|
E|---3--------------|
GUITAR 1  X 2
E|-------------------------------------------------------------------------------|
B|-------------------------------------------------------------------------------|
G|--------------------------9-11-9---------------------------9-11-9--------------|
D|---11-11-11-11-11-11-9-11--------9--11-11-11-11-11-11-9-11--------9--11-11-11--|
A|-------------------------------------------------------------------------------|
E|-------------------------------------------------------------------------------|
E|------------------------------------------|
B|------------------------------------------|
G|-----------------9-11-9---9-8-9-11-9------|
D|---11-11-11-9-11--------9------------9----|
A|------------------------------------------|
E|------------------------------------------|
VERSE:  X 2
E|-------------------------------------------------------------------------------|
B|-------------------------------------------------------------------------------|
G|-------------------------------------------------------------------------------|
D|-------------------------------------------------------------------------------|
A|-------------------------------------------------------------------------------|
E|---0-2-2-2-2-2-0-2-2-2-2-2-0-2-2-2-2-2-0-2-2-2-2-2-0-2-2-2-2-2-0-2-2-2-2-2-0-2-|
      | P.M.....| | P.M.....| | P.M.....| | P.M.....| |P.M......| | P.M.....| | P.M.
E|---------------------------------------|

Продолжаем грести бабос на ботах в Telegram.
Только в этот раз есть вариант автоматизировать это дело, привлекая рефералов. Вы можете заработать если »

B|---------------------------------------| G|-----------------------2--4-----2------| D|-----------------------2--4--2--2-4----| A|-----------------------0--2--2--0-4----| E|---2-2-2-2-0-2-2-2-2-2-------0----2----| ........| | P.M.....| CHORUS: X 2 E|----------------------------------------------------------------| B|----------------------------------------------------------------| G|---2--------2--------2--------2----2--4--3-0---2-0--------------| D|---2--2--4--2--2--4--2--2--4--2-4--2--4------3-----2------------| A|---0--2--4--0--2--4--0--2--4--0-4--0--2--------------3-0--------| E|------0--2-----0--2-----0--2----2------------------------0-2----| VERSE: SAME AS ABOVE CHORUS: SAME AS ABOVE BRIDGE: GUITAR 1 X LOTS GUITAR 2 X 6 E|--------------------------------| |---------------------| B|--------------------------------| |---------------------| G|--------------------------------| |------4-6-7/6/4-6----| D|--------------------------------| |---6--4-4-4----------| A|--------------------------------| |---6-----------------| E|---4-4-4-4-4-4-4-4-4-4-4-4-4----| |---4-----------------| | P.M.....................| SOLO: E|-----------------------------| B|-----------------------------| G|------4-----6-----4-----6----| D|---6--4--4--6--6--4--4--6----| A|---6--2--4--4--6--2--4--4----| E|---4-----2-----4-----2-------| THEN COMES A PART I DONґT KNOW FIRST ONLY DRUMS AND BASS ,THEN LOTґS OF SOLOS SOLO: E|---------------------------------------------| B|---------------------------------------------| G|-------------------------------------6--8----| D|---6--4-----2--4--6---6--4-----2--4--6--8----| A|---6--4-----2--4--6---6--4-----2--4--4--6----| E|---4--2--0--0--2--4---4--2--0--0--2----------| |P.M| |P.M| CHORUS: X 2 E|----------------------------------------------| B|----------------------------------------------| G|---4--------4--------4--------4----4--6-------| D|---4--4--6--4--4--6--4--4--6--4-4--4--6--6----| A|---2--4--6--2--4--6--2--4--6--2-4--2--4--6----| E|------2--4-----2--4-----2--4----2--------4----| OUTRO: E|-----------------------------| B|-----------------------------| G|------------8--4--3----------| D|---6--4--2--8--4--3--4--6----| A|---6--4--2--6--2--1--4--6----| E|---4--2--0-----------2--4----|








О сайтеАккордыХит-парадПоискУроки ФорумыИщу песню
ПрограммыСвежачок-сПодпискаСтатьи
Яндекс.Метрика