Табулатура W.A.S.P. | The Headless Children гитара табулатуры уроки тексты песен W.A.S.P. текст lyrics песня аккорды песни ноты нота электрогитара струна  
   А Б В Г Д Е Ж З И К Л М Н О П Р С Т У Ф Х Ч Ш Ы Э Ю Я       Разные песни
1-9 A B C D E F G H I J K L M N O P Q R S T U V W Y Z      Все исполнители

    



группа W.A.S.P., Табулатура песни The Headless Children

Группа: W.A.S.P. - другие аккорды (67),   о группе (12 статей),   диски (23),   фотографии (38)
Табулатура песни: The Headless Children
Просмотров: 792
Подобрал: Judas (killer@bk.ru)




    
#----------------------------------PLEASE NOTE---------------------------------#
#This file is the author's own work and represents their interpretation of the #
#song. You may only use this file for private study, scholarship, or research. #
#------------------------------------------------------------------------------##
Author/Artist: W.A.S.P.
Title: The Headless Children
Album: The Headless Children
Type: Guitar Tablature
Transcribed by: ANDREAS ЦHRN
Email: eva.ohrn@telia.com
#------------------------------------------------------------------------------#
#- Distributed by the site Chainsaw Charlie - http://wasptabs.planetaclix.pt  -#
#------------------------------------------------------------------------------#
THE HEADLESS CHILDREN
FROM THE HEADLESS CHILDREN ALBUM
BY W.A.S.P.
TABBED BY ANDREAS ЦHRN
NOTE: TUNE GUITAR DOWN TO Eb
INTRO:  
RIFF A:  X 8
E|--------------------------------------------------|-------------------|
B|--------------------------------------------------|-------------------|
G|---9----9--12---12-----9--9---9-----9-------------|-------------------|
D|---9----9--12---12-----7--7---9-----9--5----------|--------------2----|
A|---7----7--10---10------------7-----7--5----------|---0----------2----|
E|------7-------------7------------7-----3--0-3-2---|-3---3--2--3--0----|
                                                    | AFTER THE 8TH TIME|
RIFF B: FIRST KEYBOARD X 2  THEN GUITAR X 4
E|---------------------------------------------|
B|---------------------------------------------|
G|---------------------------------------------|
D|-------------------7-------------------------|
A|---7-7-10-9-7--7-7---10-7-7----7-10-10-------|
E|----------------------------10---------10----|
VERSE:
E|-----------------------------------------|
B|-----------------------------------------|
G|-----------------------------------------|
D|---2----5--7--2--5--7--2---7--2--5--7----|
A|---2----5--7--2--5--7--2---7--2--5--7----|
E|---0----3--5--0--3--5--0---5--0--3--5----|
CHORUS:
RIFF B  X 4
VERSE:
SAME AS ABOVE
CHORUS:
SAME AS ABOVE
BRIDGE:
E|------------------------------------------------------------------------------|
B|------------------------------------------------------------------------------|
G|--------------------------------------------7---------------------------------|
D|----------------7-----10/9/7--------------7-7--------------3-----6/5/3--------|
A|---7-7-7-10-7-7---7-7--------7-7-7-10-7-7---5--3-3-3-6-3-3---3-3-------3-3-3--|
E|------------------------------------------------------------------------------|
      |P.M|  |P.M| |P.M|        |P.M|  |P.M|      |P.M| |P.M| |P.M|       |P.M|   
E|------------------------------------------------------------|
B|------------------------------------------------------------|
G|-----------7-------------------------------------------7----|
D|---------3-7---------------7-----10/9/7--------------7-7----|
A|---6-3-3---5--7-7-7-10-7-7---7-7--------7-7-7-10-7-7---5----|
E|------------------------------------------------------------|
      |P.M|      |P.M|  |P.M| |P.M|        |P.M|  |P.M|
SOLO:
E|------------------------------------------------------------------------------|
B|------------------------------------------------------------------------------|

Продолжаем грести бабос на ботах в Telegram.
Только в этот раз есть вариант автоматизировать это дело, привлекая рефералов. Вы можете заработать если »

G|-----------------------------------------------------------7------------------| D|-----------------------------------------------------------7------------------| A|---7-7-7-7-7-7-7-7-7-7-7-7-7-7-7-7-7-7-7-7-7-7-7-7-7-7-7-7-5-7-7-7-7-7-7-7-7-7| E|------------------------------------------------------------------------------| | P.M.................................................. | | P.M............. E|------------------------------------------------------------------------------| B|------------------------------------------------------------------------------| G|-----------------------------------------7------------------------------------| D|-----------------------------------------7------------------------------------| A|---7-7-7-7-7-7-7-7-7-7-7-7-7-7-7-7-7-7-7-5-3-3-3-3-3-3-3-3-3-3-3-3-3-3-3-3-3-3| E|------------------------------------------------------------------------------| ..................................... | | P.M............................... E|------------------------------------------------------------------------------| B|------------------------------------------------------------------------------| G|-----------------------7------------------------------------------------------| D|-----------------------7------------------------------------------------------| A|---3-3-3-3-3-3-3-3-3-3-5-7-7-7-7-7-7-7-7-7-7-7-7-7-7-7-7-7-7-7-7-7-7-7-7-7-7-7| E|------------------------------------------------------------------------------| ................... | | P.M................................................. E|---------------|--------------------------------------------------------------| B|---------------|------- PLAY THIS PART 3 TIMES -------------------------------| G|---------------|--------------------------------------------------------7-----| D|---------7--7--|--------------------------------------------------------7-----| A|---7-7-7-7--7--|7-7-7-7-7-7-7-7-7-7-7-7-7-7-7-7-7-7-7-7-7-7-7-7-7-7-7-7-5-----| E|---------5--5--|--------------------------------------------------------------| ......| | P.M...................................................| E|------------------------------------------------------------------------------| B|------------------------------------------------------------------------------| G|------------------------------------------------------------------------------| D|------------------------------------------------------------------------------| A|---7-7-7-7-7-7-7-7-7-7-7-7-7-7-7-7-7-7-7-7-7-7-7-7-7-7-7-7-7-7-7-7--7-7-7-7-7-| E|------------------------------------------------------------------------------| | P.M........... ALL E|------------------------------------------------------------------------------| B|------------------------------------------------------------------------------| G|------------------------------------------------------------------------------| D|------------------------------------------------------------------------------| A|---7-7-7-7-7-7-7-7-7-7-7-9-9-9-9-9-9-9-9-9-9-9-9-9-9-9-9-10-10-10-10-10-10-10-| E|------------------------------------------------------------------------------| | P.M............ ALL E|-----------------------------------------------------------------| B|-----------------------------------------------------------------| G|-----------------------------------------------------------------| D|------------------------------7-7-7-7-7-7-7-7-7-7-7-7-7-7-7-7----| A|---10-10-10-10-10-10-10-10-10------------------------------------| E|-----------------------------------------------------------------| | P.M..................................................... | BRIDGE: SAME AS ABOVE OUTRO: E|------------------------------------------------------------------------| B|------------------------------------------------------------------------| G|---9-----7---------9-----7---------9-----7---------9-----7---------9----| D|---9-----7--7-5----9-----7--7-5----9-----7--7-5----9-----7--7-5----9----| A|---7--7--5------9--7--7--5------9--7--7--5------9--7--7--5------9--7----| E|------------------------------------------------------------------------|








О сайтеАккордыХит-парадПоискУроки ФорумыИщу песню
ПрограммыСвежачок-сПодпискаСтатьи
Яндекс.Метрика