Басовая табулатура W.A.S.P. | Mantronic гитара табулатуры уроки тексты песен W.A.S.P. текст lyrics песня аккорды песни ноты нота электрогитара струна  
   А Б В Г Д Е Ж З И К Л М Н О П Р С Т У Ф Х Ч Ш Ы Э Ю Я       Разные песни
1-9 A B C D E F G H I J K L M N O P Q R S T U V W Y Z      Все исполнители

    



группа W.A.S.P., Басовая табулатура песни Mantronic

Группа: W.A.S.P. - другие аккорды (67),   о группе (12 статей),   диски (23),   фотографии (38)
Басовая табулатура песни: Mantronic
Просмотров: 1615
Подобрал: Judas (killer@bk.ru)




    
#----------------------------------PLEASE NOTE---------------------------------#
#This file is the author's own work and represents their interpretation of the #
#song. You may only use this file for private study, scholarship, or research. #
#------------------------------------------------------------------------------#
Author/Artist: W.A.S.P.
Title: Mantronic
Album: Inside The Electric Circus
Type: Bass Tablature
Transcribed by: Artur Capela
Email: chainsawcharlie@clix.pt
#------------------------------------------------------------------------------#
#- Distributed by the site Chainsaw Charlie - http://wasptabs.planetaclix.pt  -#
#------------------------------------------------------------------------------#
              |      |         ___          ____       ____
              | |     | |       / _         /___     | __ 
               | _   /|      / /_        /__       |____/
               _/\_/ / /  /  ___    /   __  /  | __/ /
                \/\/ / / |_|__|_| / ____/ / | |     /
                 \/ \/   /  \|   \|  / ___/  / _|      /
                                    Mantronic
                          (Blackie Lawless/Chris Holmes)
                    Transcribed by Artur Capela on 31/03/2001
         Please Visit my W.A.S.P. Site at http://wasptabs.planetaclix.pt 
                 and please send me any W.A.S.P. tabs if you have.
-Mail me to chainsawcharlie@clix.pt, for any comments, corrections, etc...
-Chords Diagram and Tablature Explanation at the end
Tunning: 1/2 step down
1-Gb
2-Db
3-Ab
4-Eb
Notes: In some parts of the song the bass rhythm is hard to figure out, the
       rhythm I've used is the way it sounds best to me.
Suggestion: Forget the guitar picks and play with your fingers. :)
  Intro
-|--------------------------------------------------------------------------|-
-|--------------------------------------------------------------------------|-
-|------------------5----------------3----------------5---------------------|-
-|-0------------------------------------------------------------------------|-
   *it sounds to me like the bass starts with the acoustic like this, at least
    I'm sure that when the guitar solo 1 starts the bass is also present
                                                                              
  Guitar Solo 1 Rhythm:
-|--------------------------------------------------------------------------|-
-|*------------------------------------------------------------------------*|-
-|*-7----------------5----------------3----------------5-------------------*|-
-|--------------------------------------------------------------------------|-
                                                                              
                                                     (.)
-|--------------------------------------------------------------------------|-
-|--------------------------------------------------------------------------|-
-|-7----------------5------------5--3----------------2---------------------|-
-|--------------------------------------------------------------------------|-
                                 *strike both                                 
-|-----------------------------------------------------------------|----------
-|->->------------->->------------->->-----------------------------|----------
-|-0-0-r-----------0-0-r-----------0-0-r-----------------5---3-2-0-|----------
-|-------------------------------------------------3---------------|----------
                                                                              
-|-----------------------------------------------------------------|----------
-|-----------------------------------------------------------------|----------
-|-0-0-0-0-0-0-0-0-0-0-0-0-0-0-0-0-0-0-0-0-0-0-0-0-------5-5-------|----------
-|-------------------------------------------------3-3-3-----5-3-2-|----------
                                                                              
  Verse1:
-|-------------------------------------------------------------------|--------
-|*-----------------------------------------------------------------*|--------
-|*---------------------------5-5-----------------------------5-5---*|--------
-|--0-------------------------------0--------------------------------|--------
                                                                              
  Chorus:
-|-----------------------------------------------------------------|----------
-|-----------------------------------------------------------------|----------
-|-0-0-0-0-0-0-0-0-0-0-0-0-0-0-0-0-0-0-0-0-0-0-0-0-------5-5-3-2-0-|----------
-|-------------------------------------------------3-3-3-----------|----------
                                                                              
-|-----------------------------------------------------------------|----------
-|-----------------------------------------------------------------|----------
-|-0-0-0-0-0-0-0-0-0-0-0-0-0-0-0-0-0-0-0-0-0-0-0-0-------5-5-------|----------
-|-------------------------------------------------3-3-3-----5-3-2-|----------
                                                                              
  Verse2:
-|-------------------------------------------------------------------|--------
-|*-----------------------------------------------------------------*|--------
-|*---------------------------5-5-----------------------------5-5---*|--------
-|--0-------------------------------0--------------------------------|--------
                                                                              
  Chorus:
-|-----------------------------------------------------------------|----------
-|-----------------------------------------------------------------|----------
-|-0-0-0-0-0-0-0-0-0-0-0-0-0-0-0-0-0-0-0-0-0-0-0-0-------5-5-3-2-0-|----------
-|-------------------------------------------------3-3-3-----------|----------
                                                                              
-|-----------------------------------------------------------------|----------
-|-----------------------------------------------------------------|----------

Продолжаем грести бабос на ботах в Telegram.
Только в этот раз есть вариант автоматизировать это дело, привлекая рефералов. Вы можете заработать если »

-|-0-0-0-0-0-0-0-0-0-0-0-0-0-0-0-0-0-0-0-0-0-0-0-0-------5-5-------|---------- -|-------------------------------------------------3-3-3-----5-3-2-|---------- Verse3: -|--------------------------------------------------------------------------|- -|--------------------------------------------------------------------------|- -|------------------5----------------3----------------5---------------------|- -|-0------------------------------------------------------------------------|- -|--------------------------------------------------------------------------|- -|--------------------------------------------------------------------------|- -|-7----------------5----------------3----------------5---------------------|- -|--------------------------------------------------------------------------|- -|--------------------------------------------------------------------|------- -|--------------------------------------------------------------------|------- -|-7----------------5----------------3----------------2-2-2-2-2-2-2-2-|------- -|--------------------------------------------------------------------|------- *increasing intensity -|-----------------|---------------------------------------------------------- -|-----------------|---------------------------------------------------------- -|-2-2-2-2-2-2-2-2-|---------------------------------------------------------- -|-----------------|---------------------------------------------------------- Guitar Solo 2 Rhythm: -|-----------------------------------------------------------------|------------ -|*---------------------------------------------------------------*|------------ -|*-7-777-7-7-777-7-7-777-7-7-5-5--7-777-7-7-777-7-7-777-7-7-5-5--*|------------ -|-----------------------------------------------------------------|------------ -|---------------------------------------------------------------|------------ -|*-------------------------------------------------------------*|------------ -|*-7-777-7-7-7-7-7-5-555-5-5-5-5-5-3-333-3-3-3-3-5-555-5-5-5-5-*|------------ -|---------------------------------------------------------------|------------ -|-----------------------------------------------------------------|---------- -|-----------------------------------------------------------------|---------- -|-7-777-7-7-7-7-7-5-555-5-5-5-5-5-3-333-3-3-3-3-3-2-2-2-2-2-2-2-2-|---------- -|-----------------------------------------------------------------|---------- *increasing intensity -|-------------------------------------------------|-------------------------- -|-------------------------------------------------|-------------------------- -|-2-2-2-2-2-2-2-2-2-2-2-2-2-2-2-2-2-2-2-2-2-2-2-2-|-------------------------- -|-------------------------------------------------|-------------------------- *increasing intensity -|-----------------------------------------------------------------|---------- -|->->------------->->------------->->-----------------------------|---------- -|-0-0-r-----------0-0-r-----------0-0-r-----------------5---3-2-0-|---------- -|-------------------------------------------------3---------------|---------- Chorus: -|-------------------------------------------------------------------|-------- -|*-----------------------------------------------------------------*|-------- -|*-0-0-0-0-0-0-0-0-0-0-0-0-0-0-0-0-0-0-0-0-0-0-0-0-------5-5-3-2-0-*|-------- -|--------------------------------------------------3-3-3------------|-------- Guitar Solo 3 Rhythm: Repeat until fade out -|-------------------------------------------------------------------|-------- -|*-----------------------------------------------------------------*|-------- -|*-0-0-0-0-0-0-0-0-0-0-0-0-0-0-0-0-0-0-0-0-0-0-0-0-------5-5-3-2-0-*|-------- -|--------------------------------------------------3-3-3------------|-------- END OF SONG ______________________ |Tablature explanation:| ============================================================================== (.) - free time. > - accentuate note (play with a greater intensity). . - If the dot is on the tablature toghether with the note it's Staccato - play note half the time of its original value. /7 - slide from down to the note presented. 7 - slide from up to the note presented. 5/7 - slide from the lower note to the higher note. 75 - slide from the higher note to the lower. When the slide is in brackets like this (/) it means the 2nd note is not struck. 5h7 - Hammer-On. 7p5 - Pull-Off. 10b - bend the specified interval. 10br - bend and release in the specified interval. 5v - Vibrato. hold - this means that you must hold the cords in that interval, after you strike the note let it ring while plying the others in that same interval. r - rest, it's show in each string that was played right before the rest. If any note is in brackets it means it's not struck. =============================================================================

Аренда dj аппаратуры
Лизинговая компания. Анонсы вечеринок и выступлений.
fader-pro.ru







О сайтеАккордыХит-парадПоискУроки ФорумыИщу песню
ПрограммыСвежачок-сПодпискаСтатьи
Яндекс.Метрика