Табулатура W.A.S.P. | The Big Welcome гитара табулатуры уроки тексты песен W.A.S.P. текст lyrics песня аккорды песни ноты нота электрогитара струна  
   А Б В Г Д Е Ж З И К Л М Н О П Р С Т У Ф Х Ч Ш Ы Э Ю Я       Разные песни
1-9 A B C D E F G H I J K L M N O P Q R S T U V W Y Z      Все исполнители

    



группа W.A.S.P., Табулатура песни The Big Welcome

Группа: W.A.S.P. - другие аккорды (67),   о группе (12 статей),   диски (23),   фотографии (38)
Табулатура песни: The Big Welcome
Просмотров: 1394
Подобрал: Judas (killer@bk.ru)




    
#----------------------------------PLEASE NOTE---------------------------------#
#This file is the author's own work and represents their interpretation of the #
#song. You may only use this file for private study, scholarship, or research. #
#------------------------------------------------------------------------------#
Author/Artist: W.A.S.P.
Title: The Big Welcome
Album: Inside The Electric Circus
Type: Guitar Tablature
Transcribed by: Artur Capela
Email: chainsawcharlie@clix.pt
#------------------------------------------------------------------------------#
#- Distributed by the site Chainsaw Charlie - http://wasptabs.planetaclix.pt  -#
#------------------------------------------------------------------------------#
                                 THE BIG WELCOME
                             As recorded by W.A.S.P.
                (From the 1986 Album INSIDE THE ELECTRIC CIRCUS)
Words and Music by Blackie Lawless
Transcribed by Artur Capela (chainsawcharlie@clix.pt)
Gtr I (Eb Ab Db Gb Bb Eb) - 'Untitled'
Gtr II (Eb Ab Db Gb Bb Eb) - 'Untitled'
 Intro
  Q=175
  N.C.       E5   G5 E5
 4/4
  Gtr I
                                  |-3-| |-3-|
  W          H    Q  Q    +Q   Q  E E E E E E
|----------|------------|---------------------|
|----------|------8--5--|-(5)-----------------|
|----------|------7--4--|-(4)-----------------|
|----------|-2----5--2--|-(2)--2--5p4p2-------|
|----------|-2----------|---------------5p3p2-|
|----------|-0----------|---------------------|
*talked part
        G5      A5
  |-3-|
  E E E Q  Q    Q    +Q   Q  Q    +Q
|------------------|---------------------|
|------------------|---------------------|
|------------------|---------7b9r=(7)----|
|------------------|---------7b9r=(7)----|
|-------5----------|------5--------------|
|-5p3p0-3--5b7--5--|-(5)-----------------|

                                                        Guitar Solo
  E5        GE5                             G5        A5
                        |-3-| |-3-|   |-3-|
  H    Q  Q     +Q   Q  E E E E E E   E E E Q  Q    Q    +Q   Q   Q    +Q
|-------------|---------------------|------------------|--------------------|
|------8--5---|-(5)-----------------|------------------|--------------------|
|------7--4---|-(4)-----------------|------------------|----------7b9r=(7)--|
|-2----5--2---|-(2)--2--5p4p2-------|------------------|----------7b9r=(7)--|
|-2-----------|---------------5p3p2-|-------5----------|------5-------------|
|-0-----------|---------------------|-5p3p0-3--5b7--5--|-(5)----------------|
|
| Gtr II
| W              W                    W                   Q   E E Q     Q
|-------------|---------------------|------------------|--------------------|
|-------------|---------------------|------------------|----------8----10---|
|-------------|---------------------|------------------|------7h9-----------|
|-------------|---------------------|------------------|--------------------|
|-------------|---------------------|------------------|--------------------|
|-------------|---------------------|------------------|--------------------|

  E5                 GE5
                                   |-3-| |-3-|
   H        Q      Q      +Q    Q  E E E E E E
|----------------------|-----------------------|
|-----------8------5---|--(5)------------------|
|-----------7------4---|--(4)------------------|
|--2--------5------2---|--(2)---2--5p4p2-------|
|--2-------------------|-----------------5p3p2-|
|--0-------------------|-----------------------|
|
|  H        H             +W
|--7--------7----------|--(7)------------------|
|-10b12----10b12=======|=(10)r-----------------|
|----------------------|-----------------------|
|----------------------|-----------------------|
|----------------------|-----------------------|
|----------------------|-----------------------|

            G5        A5
   |--3---|
   E    E E Q   Q       Q       +Q   Q  Q    +Q
|-----------------------------|-------------------|
|-----------------------------|-------------------|
|-----------------------------|---------7b9r=(7)--|
|-----------------------------|---------7b9r=(7)--|
|-----------5-----------------|------5------------|
|--5p===3p0-3---5b7-----5-----|-(5)---------------|
|
|                          ~~~~~~~~~
|  H            Q      +S  E.   +W
|-----------------------------|-------------------|
|-10b12--------10b12r=(10)-8--|-(8)---------------|
|-----------------------------|-------------------|
|-----------------------------|-------------------|
|-----------------------------|-------------------|
|-----------------------------|-------------------|

  E5                 GE5
                                   |-3-| |-3-|
   H        Q      Q      +Q    Q  E E E E E E
|----------------------|-----------------------|
|-----------8------5---|--(5)------------------|
|-----------7------4---|--(4)------------------|

Продолжаем грести бабос на ботах в Telegram.
Только в этот раз есть вариант автоматизировать это дело, привлекая рефералов. Вы можете заработать если »

|--2--------5------2---|--(2)---2--5p4p2-------| |--2-------------------|-----------------5p3p2-| |--0-------------------|-----------------------| | | H H +W |----------------------|-----------------------| |-15b17----15b17=======|=(15)r-----------------| |----------------------|-----------------------| |----------------------|-----------------------| |----------------------|-----------------------| |----------------------|-----------------------| G5 A5 |--3---| E E E Q Q Q +Q Q Q +Q |-----------------------------|---------------------| |-----------------------------|---------------------| |-----------------------------|-----------7b9r=(7)--| |-----------------------------|-----------7b9r=(7)--| |------------5----------------|--------5------------| |--5p===3p0--3---5b7---5------|--(5)----------------| | | Q Q Q Q +W |---------------------17b19===|=(17)r---------------| |-15b17r====15--12------------|---------------------| |-----------------------------|---------------------| |-----------------------------|---------------------| |-----------------------------|---------------------| |-----------------------------|---------------------| End E5 W +W |---------------|----------*| |---------------|----------*| |---------------|----------*| |--2------------|--(2)-----*| |--2------------|--(2)-----*| |--0------------|--(0)-----*| | | W +W |-17b19=========|=(17)r----*| |---------------|----------*| |---------------|----------*| |---------------|----------*| |---------------|----------*| |---------------|----------*| Duration Legend --------------- W - whole; H - half; Q - quarter; E - 8th; S - 16th; T - 32nd; X - 64th; a - acciaccatura + - note tied to previous; . - note dotted; .. - note double dotted Uncapitalized letters represent notes that are staccato (1/2 duration) Irregular groupings are notated above the duration line Duration letters will always appear directly above the note/fret number it represents the duration for. Duration letters with no fret number below them represent rests. Multi- bar rests are notated in the form Wxn, where n is the number of bars to rest for. Low melody durations appear below the staff Tablature Legend ---------------- h - hammer-on p - pull-off b - bend pb - pre-bend r - bend release (if no number after the r, then release immediately) / - slide into or out of (from/to "nowhere") s - legato slide S - shift slide - natural harmonic [n] - artificial harmonic n(n) - tapped harmonic ~ - vibrato tr - trill T - tap TP - trem. picking PM - palm muting n/ - tremolo bar dip; n = amount to dip n - tremolo bar down n/ - tremolo bar up /n - tremolo bar inverted dip = - hold bend; also acts as connecting device for hammers/pulls <> - volume swell (louder/softer) x - on rhythm slash represents muted slash o - on rhythm slash represents single note slash Misc Legend ----------- | - bar || - double bar ||o - repeat start o|| - repeat end *| - double bar (ending) : - bar (freetime) $ - Segno & - Coda Tempo markers - = BPM(8/16=s8/s16), where s8 = swing 8ths, s16 = swing 16ths *************************************************************************************** * Generated using Power Tab Editor by Brad Larsen - http://powertab.guitarnetwork.org * ***************************************************************************************








О сайтеАккордыХит-парадПоискУроки ФорумыИщу песню
ПрограммыСвежачок-сПодпискаСтатьи
Яндекс.Метрика