Табулатура W.A.S.P. | The Rock Rolls On гитара табулатуры уроки тексты песен W.A.S.P. текст lyrics песня аккорды песни ноты нота электрогитара струна  
   А Б В Г Д Е Ж З И К Л М Н О П Р С Т У Ф Х Ч Ш Ы Э Ю Я       Разные песни
1-9 A B C D E F G H I J K L M N O P Q R S T U V W Y Z      Все исполнители

    



группа W.A.S.P., Табулатура песни The Rock Rolls On

Группа: W.A.S.P. - другие аккорды (67),   о группе (12 статей),   диски (23),   фотографии (38)
Табулатура песни: The Rock Rolls On
Просмотров: 868
Подобрал: Judas (killer@bk.ru)




    
#----------------------------------PLEASE NOTE---------------------------------#
#This file is the author's own work and represents their interpretation of the #
#song. You may only use this file for private study, scholarship, or research. #
#------------------------------------------------------------------------------##
Author/Artist: W.A.S.P.
Title: The Rock Rolls On
Album: Inside The electric Circus
Type: Guitar Tablature
Transcribed by: ANDREAS ЦHRN
Email: eva.ohrn@telia.com
#------------------------------------------------------------------------------#
#- Distributed by the site Chainsaw Charlie - http://wasptabs.planetaclix.pt  -#
#------------------------------------------------------------------------------#
THE ROCK ROLLS FOREVER ON
FROM INSIDE THE ELECTRIC CIRCUS ALBUM
BY W.A.S.P.
TABBED BY ANDREAS ЦHRN
NOTE: TUNE GUITAR A HALF STEP DOWN TO Eb
INTRO:                   b  b  b   b  b  b  
E|---b--b--b---b--b--b---11-11-11--18-18-18--b--b--b--b----------------------------|
B|---11-11-11--13-13-13----------------------11-11-11-11----b--b--b----------------|
G|-------------------------------------------------------12-12-12-12---------b-----|
D|-------------------------------------------------------------------14-12-7-7-----|
A|---------------------------------------------------------------------------------|
E|-- B ------- C# ------ E ------- B ------- B ------------ A ------ E --- D B ----|
  ( 2 GUITARS IS WRITTEN ABOVE )
VERSE:
E|----------------------------------------------------------------------------------|
B|----------------------------------------------------------------------------------|
G|-----------------------------------------------------------------2--2-4--2-4------|
D|-----------------------------------------------------------------2--2-4--2-4------|
A|---0-2-2-2-2-2-2-2-2-2-2-2-2-2-2-0-2-2-2-2-2-2-2-2-2-2-2-2-2-2-2-0--0-2--0-2-2-2-2|
E|----------------------------------------------------------------------------------|
      | P.M...................... | | P.M........................ |           | P.M..
E|----------------------------------|
B|----------------------------------|
G|---------------------7--9---------|
D|---------------------7--9--7-9----|
A|---2-2-2-2-2-2-2-2-2-5--7--7-9----|
E|---------------------------5-7----|
    ................. |
CHORUS:  X 2
E|--------------------|
B|--------------------|
G|---------9--7-------|

Продолжаем грести бабос на ботах в Telegram.
Только в этот раз есть вариант автоматизировать это дело, привлекая рефералов. Вы можете заработать если »

D|---9--7--9--7--9----| A|---9--7--7--5--9----| E|---7--5--------7----| VERSE: SAME AS ABOVE CHORUS: SAME AS ABOVE BRIDGE: E|--------------------------------------------------------------------------------| B|--------------------------------------------------------------------------------| G|---9--7--6--4--------------------------4---9--7--6--4---------------------------| D|---9--7--6--4------------------------b-4---9--7--6--4------------------------b-4| A|---7--5--4--2--0-0-0-0-0-0-0-0-0-0-0-5-2---7--5--4--2--0-0-0-0-0-0-0-0-0-0-0-5-4| E|-------------------------------------------------------------------------------2| | P.M................ | | P.M................ | SOLO: E|---------------------------------------------------------------------------------| B|---------------------------------------------------------------------------------| G|---------------------------2-----------------------------------------------------| D|---4-----------------------2-2-4-------------4- X 4 ---4--5--7--9--4--5--7--9----| A|---4-----------------------0-2-4-------------4---------4--5--7--9--4--5--7--9----| E|---2-2-2-2-2-2-2-2-2-2-2-2---0-2-2-2-2-2-2-2-2---------2--3--5--7--2--3--5--7----| | P.M................ | | P.M...... | CHORUS: SAME AS ABOVE THEN COMES THIS E|----------------------------------| B|----------------------------------| G|----------------------------------| D|---7-9----------------------------| X 4 A|---7-9----------------------------| E|---5-7-7-7-7-7-7-7-7-7-7-7-7-7----| SOLO: X 18 ( FADE OUT ) E|----------------------------------| B|----------------------------------| G|----------------------------------| D|---7-9----------------------------| A|---7-9----------------------------| E|---5-7-7-7-7-7-7-7-7-7-7-7-7-7----| TABEXPLANATION: B = BEND








О сайтеАккордыХит-парадПоискУроки ФорумыИщу песню
ПрограммыСвежачок-сПодпискаСтатьи
Яндекс.Метрика