Табулатура W.A.S.P. | Mantronic гитара табулатуры уроки тексты песен W.A.S.P. текст lyrics песня аккорды песни ноты нота электрогитара струна  
   А Б В Г Д Е Ж З И К Л М Н О П Р С Т У Ф Х Ч Ш Ы Э Ю Я       Разные песни
1-9 A B C D E F G H I J K L M N O P Q R S T U V W Y Z      Все исполнители

    



группа W.A.S.P., Табулатура песни Mantronic

Группа: W.A.S.P. - другие аккорды (67),   о группе (12 статей),   диски (23),   фотографии (38)
Табулатура песни: Mantronic
Просмотров: 2031
Подобрал: Judas (killer@bk.ru)




    
#----------------------------------PLEASE NOTE---------------------------------#
#This file is the author's own work and represents their interpretation of the #
#song. You may only use this file for private study, scholarship, or research. #
#------------------------------------------------------------------------------#
Author/Artist: W.A.S.P.
Title: Mantronic
Album: Inside The Electric Circus
Type: Guitar Tablature
Transcribed by: Artur Capela
Email: chainsawcharlie@clix.pt
#------------------------------------------------------------------------------#
#- Distributed by the site Chainsaw Charlie - http://wasptabs.planetaclix.pt  -#
#------------------------------------------------------------------------------#
              |      |         ___          ____       ____
              | |     | |       / _         /___     | __ 
               | _   /|      / /_        /__       |____/
               _/\_/ / /  /  ___    /   __  /  | __/ /
                \/\/ / / |_|__|_| / ____/ / | |     /
                 \/ \/   /  \|   \|  / ___/  / _|      /
                                    Mantronic
                          (Balckie Lawless/Chris Holmes)
                    Transcribed by Artur Capela on 13/04/2001
         Please Visit my W.A.S.P. Site at http://wasptabs.planetaclix.pt 
                 and please send me any W.A.S.P. tabs if you have.
-Mail me to chainsawcharlie@clix.pt, for any comments, corrections, etc...
-Chords Diagram and Tablature Explanation at the end
Tunning: 1/2 step down
1-Eb
2-Bb
3-Gb
4-Db
5-Ab
6-Eb
Notes: OK, this is my new improved version of my old "Mantronic" guitar tab.
       It's much better and I've also transcribed the main solo this time,
       it's far from perfect on 2 sections of it but this is solo is really
       hard to transcribe. The last solo during the fade out part I couldn't
       transcribe it, but it's mostly made of dive effects with Artificial
       Harmonics on E and D notes with bendings also. Enjoy!
  Intro:
  (Acoustic Guitar)
-|----------0-----------------0-2--------------------------------0--------|---
-|------------0-------------3-----3------------5p3-------------3---3------|---
-|--------------0---------2---------2--------0-----5---------2-------2----|---
-|--------2----------0---------------------2------------0-----------------|---
-|------2-----------------------------3-----------------------------------|---
-|-0----------------------------------------------------------------------|---
   *hold throughout                                                           
-|------------0---------------------0--2------------------------------------|-
-|---------------0---------------3--------3----------------5p3--------------|-
-|------------------0---------2--------------2----------0-------5-----------|-
-|---------2-------------0---------------------------2---------------0------|-
-|------2---------------------------------------3---------------------------|-
-|-0------------------------------------------------------------------------|-
 |Guitar Solo I (Electric Guitar)                                           | 
-|----------------------------------14----14-15-17v--14h15p14p12h14p12------|-
-|-17v----------(17)------------------17------------------------------15---|-
-|--------------------------------------------------------------------------|-
-|--------------------------------------------------------------------------|-
-|--------------------------------------------------------------------------|-
-|--------------------------------------------------------------------------|-
                                                                              
-|-------0---------------------0---------------------0--2-------------------|-
-|----3-----3---------------------0---------------3--------3----------------|-
-|-2-----------2---------------------0---------2--------------2----------0--|-
-|--------------------------2-------------0---------------------------2-----|-
-|-----------------------2---------------------------------------3----------|-
-|------------------0-------------------------------------------------------|-
 |                                                                          | 
-|-12-----------------------------------------------------------------------|-
-|----15-14-12--------------------------------------------------------------|-
-|-------------14-------(14)b----r(14)v---(14)------------------------14---|-
-|---------------------------------------------------16p14-16-17-16-17------|-
-|--------------------------------------------------------------------------|-
-|--------------------------------------------------------------------------|-
                        *bend 1/2 step                                        
-|----------------------0---------------------0---------------------0--2----|-
-|-5p3---------------3-----3---------------------0---------------3----------|-
-|------5---------2-----------2---------------------0---------2-------------|-
-|-----------0-----------------------------2-------------0------------------|-
-|--------------------------------------2-----------------------------------|-
-|---------------------------------0----------------------------------------|-
 |                                                                          | 
-|-------------------------------------14-15-17-22b--22b--22b--22b--22b-----|-
-|-------------------------15----15-17--------------------------------------|-
-|----14-16-14-16-17-16-17----17--------------------------------------------|-
-|-17-----------------------------------------------------------------------|-
-|--------------------------------------------------------------------------|-
-|--------------------------------------------------------------------------|-
                                                *bend all 1 step              
-|----------------------------2---------------------------------------------|-
-|-3----------------5p3-------4---------------------------------------------|-
-|----2----------0-------5----4---------------------------------------------|-
-|------------2---------------4---------------------------------------------|-
-|-------3--------------------2---------------------------------------------|-
-|--------------------------------------------------------------------------|-
 |                                                                          | 
-|-22b---22bv---------------------------------------------------------------|-
-|--------------------------------------------------------------------------|-
-|-------------16--16p14()12---14b-----------------------------------------|-
-|--------------------------------------------------------------------------|-
-|--------------------------------------------------------------------------|-
-|--------------------------------------------------------------------------|-
   *bend both 1 step            *bend 1 step                                  
  (Electric Guitars)
-|-----------------------------------------------------|----------------------
-|-----------------------------------------------------|----------------------
-|-5--2------2--0--2---------5--2------2--0--2---------|----------------------
-|-5--2------2--0--2---------5--2------2--0--2---------|----------------------
-|-------0-0----------0-0-0--------0-0----------0-0-0--|----------------------
-|-----------------------------------------------------|----------------------
         . .          . . .        . .          . . .                         
-|-----------------------------------------------------|----------------------
-|------------------------------------3----------------|----------------------
-|-5--2------2--0--2------------------2----------------|----------------------
-|-5--2------2--0--2---------5--------0----------------|----------------------
-|-------0-0----------0-0-0--5---------------3--2--0---|----------------------
-|---------------------------3-------------------------|----------------------
         . .          . . .                  .  .  .                          
-|-----------------------------------------------------|----------------------
-|-----------------------------------------------------|----------------------
-|-5--2------2--0--2------------2--2--2--0--2----------|----------------------
-|-5--2------2--0--2------------2--2--2--0--2----------|----------------------
-|-------0-0----------0-0-0--0-----------------0-0-0---|----------------------
-|-----------------------------------------------------|----------------------
         . .          . . .  .                 . . .                          
-|-----------------------------------------------------|----------------------
-|------------------------------------3----------------|----------------------
-|-5--2------2--0--2------------------2----------------|----------------------
-|-5--2------2--0--2---------5--------0----------------|----------------------
-|-------0-0----------0-0-0--5-------------------------|----------------------
-|---------------------------3---------------5--3--2---|----------------------
         . .          . . .                  .  .  .                          
  Verse1:                                  Play 4 times
-|-----------------------------------------------------|----------------------
-|-------------------------------------------3--3------|----------------------
-|*------------------------------------------2--2-----*|----------------------
-|*-2----------------------------------------0--0-----*|----------------------
-|--2--------------------------------------------------|----------------------
-|--0--------------------------------------------------|----------------------
                                                                              
  Chorus:
-|-----------------------------------------------------|----------------------
-|-----------------------------------------------------|----------------------
-|-5--2------2--0--2------------2--2--2--0--2----------|----------------------
-|-5--2------2--0--2------------2--2--2--0--2----------|----------------------
-|-------0-0----------0-0-0--0-----------------0-0-0---|----------------------
-|-----------------------------------------------------|----------------------
         . .          . . .  .                 . . .                          
-|-----------------------------------------------------|----------------------
-|------------------------------------3----------------|----------------------
-|-5--2------2--0--2------------------2----------------|----------------------
-|-5--2------2--0--2---------5--------0----------------|----------------------
-|-------0-0----------0-0-0--5---------------3--2--0---|----------------------
-|---------------------------3-------------------------|----------------------
         . .          . . .                  .  .  .                          
-|-----------------------------------------------------|----------------------
-|-----------------------------------------------------|----------------------
-|-5--2------2--0--2------------2--2--2--0--2----------|----------------------
-|-5--2------2--0--2------------2--2--2--0--2----------|----------------------
-|-------0-0----------0-0-0--0-----------------0-0-0---|----------------------
-|-----------------------------------------------------|----------------------
         . .          . . .  .                 . . .                          
-|-----------------------------------------------------|----------------------
-|------------------------------------3----------------|----------------------
-|-5--2------2--0--2------------------2----------------|----------------------
-|-5--2------2--0--2---------5--------0----------------|----------------------
-|-------0-0----------0-0-0--5-------------------------|----------------------
-|---------------------------3---------------5--3--2---|----------------------
         . .          . . .                  .  .  .                          
  Verse2:                                  Play 4 times
-|-----------------------------------------------------|----------------------
-|-------------------------------------------3--3------|----------------------
-|*------------------------------------------2--2-----*|----------------------
-|*-2----------------------------------------0--0-----*|----------------------
-|--2--------------------------------------------------|----------------------
-|--0--------------------------------------------------|----------------------
                                                                              
  Chorus:
-|-----------------------------------------------------|----------------------
-|-----------------------------------------------------|----------------------
-|-5--2------2--0--2------------2--2--2--0--2----------|----------------------
-|-5--2------2--0--2------------2--2--2--0--2----------|----------------------
-|-------0-0----------0-0-0--0-----------------0-0-0---|----------------------
-|-----------------------------------------------------|----------------------
         . .          . . .  .                 . . .                          
-|-----------------------------------------------------|----------------------
-|------------------------------------3----------------|----------------------
-|-5--2------2--0--2------------------2----------------|----------------------
-|-5--2------2--0--2---------5--------0----------------|----------------------
-|-------0-0----------0-0-0--5---------------3--2--0---|----------------------
-|---------------------------3-------------------------|----------------------
         . .          . . .                  .  .  .                          
-|-----------------------------------------------------|----------------------
-|-----------------------------------------------------|----------------------
-|-5--2------2--0--2------------2--2--2--0--2----------|----------------------
-|-5--2------2--0--2------------2--2--2--0--2----------|----------------------
-|-------0-0----------0-0-0--0-----------------0-0-0---|----------------------
-|-----------------------------------------------------|----------------------
         . .          . . .  .                 . . .                          
-|-----------------------------------------------------|----------------------
-|------------------------------------3----------------|----------------------
-|-5--2------2--0--2------------------2----------------|----------------------
-|-5--2------2--0--2---------5--------0----------------|----------------------
-|-------0-0----------0-0-0--5-------------------------|----------------------
-|---------------------------3---------------5--3--2---|----------------------
         . .          . . .                  .  .  .                          
  Verse3:
    Em                D                C5                D
    /                 /                /                 /
  (Acoustic Guitar)                                             Play 3 times
-|-----------0-----------------0-2--------------------------------0---------|-
-|-------------0-------------3-----3------------5p3-------------3---3-------|-
-|*--------------0---------2---------2--------0-----5---------2-------2----*|-
-|*--------2----------0---------------------2------------0-----------------*|-
-|-------2-----------------------------3------------------------------------|-
-|--0-----------------------------------------------------------------------|-

Продолжаем грести бабос на ботах в Telegram.
Только в этот раз есть вариант автоматизировать это дело, привлекая рефералов. Вы можете заработать если »

*the chords are played by a 2nd acoustic guitar Em D C5 / / / -|--------0-----------------0-2-----------------------2-2-2-2-2-2-2-2-|------- -|----------0-------------3-----3------------5p3------4-4-4-4-4-4-4-4-|------- -|------------0---------2---------2--------0-----5----4-4-4-4-4-4-4-4-|------- -|------2----------0---------------------2------------4-4-4-4-4-4-4-4-|------- -|----2-----------------------------3-----------------2-2-2-2-2-2-2-2-|------- -|-0------------------------------------------------------------------|------- -|-2-2-2-2-2-2-2-2-|---------------------------------------------------------- -|-4-4-4-4-4-4-4-4-|---------------------------------------------------------- -|-4-4-4-4-4-4-4-4-|---------------------------------------------------------- -|-4-4-4-4-4-4-4-4-|---------------------------------------------------------- -|-2-2-2-2-2-2-2-2-|---------------------------------------------------------- -|-----------------|---------------------------------------------------------- |(Electric Guitar)| -|-----------------|---------------------------------------------------------- -|-----------------|---------------------------------------------------------- -|-4---------------|---------------------------------------------------------- -|-4---------------|---------------------------------------------------------- -|-2---------------|---------------------------------------------------------- -|-----------------|---------------------------------------------------------- *fade in (Electric Guitar only) Guitar Solo II: E5 D5 / / / / / / / / -|-12------12------12------12----12-----------------------------------------|- -|----15b-----15b-----15b-----15----15bv------------------------------------|- -|----------------------------------------16p14()12h14p12-14-14b-----------|- -|--------------------------------------------------------------------------|- -|--------------------------------------------------------------------------|- -|--------------------------------------------------------------------------|- *all the bendings on this solo are 1 step *the rhythm guitar above the solo tab is just aproximate relative to the solo tab E5 D5 / / / / / / / / -|--------------------------------------------------------------------------|- -|-0h5p3p0h5p3p0h5p3p0h5p3p0h5p3p0h5p3p0------------------------------------|- -|---------------------------------------2b-------2-0-2-0-2-2b--------------|- -|--------------------------------------------------------------------------|- -|--------------------------------------------------------------------------|- -|--------------------------------------------------------------------------|- . . . . . E5 D5 E5 / / / / / / / / / -|-----------------------------------------------------------15b--15--14----|- -|------------------------------15b----17-17p15p14-15v----17----------------|- -|-----12-14-12-14b-------12-14---------------------------------------------|- -|-/14-----------------14---------------------------------------------------|- -|--------------------------------------------------------------------------|- -|--------------------------------------------------------------------------|- E5 / / / / / -|----14--------------------------------------------------------------------|- -|-17----17-15h17p15p14h15p14()12h14p12------------------------------------|- -|---------------------------------------14h16p14p13h14h16p14p13h14h16p14p13|- -|--------------------------------------------------------------------------|- -|--------------------------------------------------------------------------|- -|--------------------------------------------------------------------------|- *well, actually something fast like this :-) D5 E5 D5 C5 D5 / / / / / / -|---------------------------------------------------22-22b-22-22b-22bv-----|- -|--------------------------------------------------------------------------|- -|-14bv------------------------------------12-14-16------------------------|- -|---------------------------------12-14-16---------------------------------|- -|------------------------12-14-15------------------------------------------|- -|---------------12-14-15---------------------------------------------------|- E5 D5 C5 / / / -|-10b--12-12p10p9h10h12p10p9-------------------------------------15b-------|- -|----------------------------12p10p9h10h12p10p9---10b-----17--------------|- -|-------------------------------------------------------------16-----------|- -|--------------------------------------------------------------------------|- -|--------------------------------------------------------------------------|- -|--------------------------------------------------------------------------|- *again, just something fast like this :-) D5 E5 / / -|-15--14-------------------------------------------------------------------|- -|---------17--15h17p15p14--15bv-------------------------------------------|- -|-------------------------------------11-12----11-12----11-12----11-12-----|- -|----------------------------------14-------14-------14-------14-----------|- -|--------------------------------------------------------------------------|- -|--------------------------------------------------------------------------|- D5 C5 / / -|--------------------------------------------------------------------------|- -|--------------------------------------------------------------------------|- -|----11-12-------11-12----11-12----11-12----11-12----11-12-------11-12-----|- -|-14-------14-14-------14-------14-------14-------14-------14-14-----------|- -|--------------------------------------------------------------------------|- -|--------------------------------------------------------------------------|- -|--------------------------------------------------------------------------|- -|--------------------------------------------------------------------------|- -|----11-12----11-12----11-12----11-12--------------------------------------|- -|-14-------14-------14-------14-------14-----------------------------------|- -|--------------------------------------------------------------------------|- -|--------------------------------------------------------------------------|- B5 / / / / / / / / / / / / / / / / . . . . . . . . . -|--------------------------------------------------------------------------|- -|--------------------------------------------------------------------------|- -|-14bv----12h14p1211v----11h12p119v----9h11p9----------------------------|- -|-----------------------------------------------9v-------------------------|- -|--------------------------------------------------------------------------|- -|--------------------------------------------------------------------------|- *the dots (.) are as usual - "palm muting" B5 / / / / / / / / / / / / / / / / . . . . . . . . . -|--------------------------------------------------------------------------|- -|--------------------------------------------------------------------------|- -|-/14bv---12h14p1211v----11h12p119v----9h11p9----------------------------|- -|-----------------------------------------------9v-------------------------|- -|--------------------------------------------------------------------------|- -|--------------------------------------------------------------------------|- *let this note ring through the next 2 measures -|-----------------------------------------------------|---------------------- -|-----------------------------------------------------|---------------------- -|-5--2------2--0--2---------5--2------2--0--2---------|---------------------- -|-5--2------2--0--2---------5--2------2--0--2---------|---------------------- -|-------0-0----------0-0-0--------0-0----------0-0-0--|---------------------- -|-----------------------------------------------------|---------------------- . . . . . . . . . . -|-----------------------------------------------------|---------------------- -|------------------------------------3----------------|---------------------- -|-5--2------2--0--2------------------2----------------|---------------------- -|-5--2------2--0--2---------5--------0----------------|---------------------- -|-------0-0----------0-0-0--5---------------3--2--0---|---------------------- -|---------------------------3-------------------------|---------------------- . . . . . . . . Chorus & Solo III Rhythm: -|------------------------------------------------------|--------------------- -|------------------------------------------------------|--------------------- -|*-5--2------2--0--2------------2--2--2--0--2----------|--------------------- -|*-5--2------2--0--2------------2--2--2--0--2----------|--------------------- -|--------0-0----------0-0-0--0-----------------0-0-0---|--------------------- -|------------------------------------------------------|--------------------- . . . . . . . . . *1st is just the chorus, then starts the Guitar Solo III. The solo is mostly made of dive effects, artificial harmonics and bendings in the E and D notes, mostly. Repeat until fade out -|------------------------------------------------------|--------------------- -|------------------------------------3-----------------|--------------------- -|-5--2------2--0--2------------------2----------------*|--------------------- -|-5--2------2--0--2---------5--------0----------------*|--------------------- -|-------0-0----------0-0-0--5---------------3--2--0----|--------------------- -|---------------------------3--------------------------|--------------------- . . . . . . . . END OF SONG _______________ |Chords Diagram:| ============================================================================== Em D C5 D5 E5 B5 -|-0----2-------------------------------------------------------------------|- -|-0----3---------3---------------------------------------------------------|- -|-0----2----5----2---------------------------------------------------------|- -|-2----0----5----0----2----4-----------------------------------------------|- -|-2---------3---------2----2-----------------------------------------------|- -|-0-------------------0----------------------------------------------------|- ============================================================================== ______________________ |Tablature explanation:| ============================================================================== (.) - free time. > - accentuate note (play with a greater intensity). . - Palm Mute, mute the strings with your picking hand (when the dot is below the tablature). If the dot is on the tablature toghether with the note it's Staccato - play note half the time of its original value. /7 - slide from down to the note presented. 7 - slide from up to the note presented. 5/7 - slide from the lower note to the higher note. 75 - slide from the higher note to the lower. When the slide is in brackets like this (/) it means the 2nd note is not struck. 5h7 - Hammer-On. 7p5 - Pull-Off. 10b - bend the specified interval. 10br - bend and release in the specified interval. 5v - Vibrato. hold - this means that you must hold the cords in that interval, after you strike the note let it ring while plying the others in that same interval. r - rest, it's show in each string that was played right before the rest. B5 / - Rhythm slashes to indicate when to play the specified chord. It's shown above the tablature measures. If any note is in brackets it means it's not struck. =============================================================================








О сайтеАккордыХит-парадПоискУроки ФорумыИщу песню
ПрограммыСвежачок-сПодпискаСтатьи
Яндекс.Метрика